  0
SECTION
  2
HEADER
  9
$ACADVER
  1
AC1009
  9
$EXTMIN
 10
-5.308219178082096
 20
-16.986301369862712
  9
$EXTMAX
 10
19.691780821917902
 20
0.25684931506848857
  9
$TEXTSTYLE
  7
STANDARD
  9
$DIMLFAC
 40
1
  9
$REGENMODE
 70
1
  9
$DRAGMODE
 70
2
  9
$DIMASO
 70
1
  9
$LTSCALE
 40
1.0000000000
  0
ENDSEC
  0
SECTION
  2
TABLES
  0
TABLE
  2
LTYPE
 70
3
  0
LTYPE
  2
CONTINUOUS
 70
64
  3
CONTINUOUS
 72
65
 73
0
 40
0.0000000000
  0
LTYPE
  2
DOT
 70
64
  3
DOT
 72
65
 73
2
 40
0.2500000000
 49
0.0000000000
 49
-0.2500000000
  0
LTYPE
  2
DASHDOT
 70
64
  3
DASHDOT
 72
65
 73
4
 40
1.0000000000
 49
0.5000000000
 49
-0.2500000000
 49
0.0000000000
 49
-0.2500000000
  0
ENDTAB
  0
TABLE
  2
LAYER
 70
1
  0
LAYER
  2
0
 70
0
 62
2
  6
CONTINUOUS
  0
ENDTAB
  0
TABLE
  2
STYLE
 70
0
  0
STYLE
  2
Standard
 70
0
 40
0
 41
1
 50
0
 71
0
 42
2.5
  3
txt
  4

  0
ENDTAB
  0
ENDSEC
  0
SECTION
  2
BLOCKS
  0
BLOCK
  8
0
 62
140
  6
CONTINUOUS
  2
TELL_2
 70
0
 10
0.81227463943774669
 20
-13.077357244411035
  0
LINE
  8
0
 62
140
  6
CONTINUOUS
 10
-1.0702054500579834
 20
-13.261988639831543
 11
-1.0702054500579834
 21
-12.919522285461426
  0
LINE
  8
0
 62
140
  6
CONTINUOUS
 10
-0.94178074598312378
 20
-12.919522285461426
 11
-0.94178074598312378
 21
-13.261988639831543
  0
LINE
  8
0
 62
140
  6
CONTINUOUS
 10
-0.81335610151290894
 20
-13.261988639831543
 11
-0.81335610151290894
 21
-12.919522285461426
  0
LINE
  8
0
 62
140
  6
CONTINUOUS
 10
-0.68493139743804932
 20
-12.919522285461426
 11
-0.68493139743804932
 21
-13.261988639831543
  0
LINE
  8
0
 62
140
  6
CONTINUOUS
 10
-0.55650675296783447
 20
-13.261988639831543
 11
-0.55650675296783447
 21
-12.919522285461426
  0
LINE
  8
0
 62
140
  6
CONTINUOUS
 10
-0.42808210849761963
 20
-12.919522285461426
 11
-0.42808210849761963
 21
-13.261988639831543
  0
LINE
  8
0
 62
140
  6
CONTINUOUS
 10
-0.29965746402740479
 20
-13.261988639831543
 11
-0.29965746402740479
 21
-12.919522285461426
  0
LINE
  8
0
 62
140
  6
CONTINUOUS
 10
-0.17123278975486755
 20
-12.919522285461426
 11
-0.17123278975486755
 21
-13.261988639831543
  0
LINE
  8
0
 62
140
  6
CONTINUOUS
 10
-0.042808141559362411
 20
-13.261988639831543
 11
-0.042808141559362411
 21
-12.919522285461426
  0
LINE
  8
0
 62
140
  6
CONTINUOUS
 10
0.085616521537303925
 20
-12.919522285461426
 11
0.085616521537303925
 21
-13.261988639831543
  0
LINE
  8
0
 62
140
  6
CONTINUOUS
 10
0.21404117345809937
 20
-13.261988639831543
 11
0.21404117345809937
 21
-12.919522285461426
  0
LINE
  8
0
 62
140
  6
CONTINUOUS
 10
0.3424658477306366
 20
-12.919522285461426
 11
0.3424658477306366
 21
-13.261988639831543
  0
LINE
  8
0
 62
140
  6
CONTINUOUS
 10
0.47089049220085144
 20
-13.261988639831543
 11
0.47089049220085144
 21
-12.919522285461426
  0
LINE
  8
0
 62
140
  6
CONTINUOUS
 10
0.59931516647338867
 20
-12.919522285461426
 11
0.59931516647338867
 21
-13.261988639831543
  0
LINE
  8
0
 62
140
  6
CONTINUOUS
 10
0.72773981094360352
 20
-13.261988639831543
 11
0.72773981094360352
 21
-12.919522285461426
  0
LINE
  8
0
 62
140
  6
CONTINUOUS
 10
0.85616445541381836
 20
-12.919522285461426
 11
0.85616445541381836
 21
-13.261988639831543
  0
LINE
  8
0
 62
140
  6
CONTINUOUS
 10
0.9845890998840332
 20
-13.261988639831543
 11
0.9845890998840332
 21
-12.919522285461426
  0
LINE
  8
0
 62
140
  6
CONTINUOUS
 10
1.113013744354248
 20
-12.919522285461426
 11
1.113013744354248
 21
-13.261988639831543
  0
ENDBLK
  0
BLOCK
  8
0
 62
140
  6
CONTINUOUS
  2
TELL_3
 70
0
 10
0.87435777078182975
 20
-7.9991415313747156
  0
LINE
  8
0
 62
140
  6
CONTINUOUS
 10
-1.0702054500579834
 20
-8.2106180191040039
 11
-1.0702054500579834
 21
-7.8681521415710449
  0
LINE
  8
0
 62
140
  6
CONTINUOUS
 10
-0.94178074598312378
 20
-7.8681521415710449
 11
-0.94178074598312378
 21
-8.2106180191040039
  0
LINE
  8
0
 62
140
  6
CONTINUOUS
 10
-0.81335610151290894
 20
-8.2106180191040039
 11
-0.81335610151290894
 21
-7.8681521415710449
  0
LINE
  8
0
 62
140
  6
CONTINUOUS
 10
-0.68493139743804932
 20
-7.8681521415710449
 11
-0.68493139743804932
 21
-8.2106180191040039
  0
LINE
  8
0
 62
140
  6
CONTINUOUS
 10
-0.55650675296783447
 20
-8.2106180191040039
 11
-0.55650675296783447
 21
-7.8681521415710449
  0
LINE
  8
0
 62
140
  6
CONTINUOUS
 10
-0.42808210849761963
 20
-7.8681521415710449
 11
-0.42808210849761963
 21
-8.2106180191040039
  0
LINE
  8
0
 62
140
  6
CONTINUOUS
 10
-0.29965746402740479
 20
-8.2106180191040039
 11
-0.29965746402740479
 21
-7.8681521415710449
  0
LINE
  8
0
 62
140
  6
CONTINUOUS
 10
-0.17123278975486755
 20
-7.8681521415710449
 11
-0.17123278975486755
 21
-8.2106180191040039
  0
LINE
  8
0
 62
140
  6
CONTINUOUS
 10
-0.042808141559362411
 20
-8.2106180191040039
 11
-0.042808141559362411
 21
-7.8681521415710449
  0
LINE
  8
0
 62
140
  6
CONTINUOUS
 10
0.085616521537303925
 20
-7.8681521415710449
 11
0.085616521537303925
 21
-8.2106180191040039
  0
LINE
  8
0
 62
140
  6
CONTINUOUS
 10
0.21404117345809937
 20
-8.2106180191040039
 11
0.21404117345809937
 21
-7.8681521415710449
  0
LINE
  8
0
 62
140
  6
CONTINUOUS
 10
0.3424658477306366
 20
-7.8681521415710449
 11
0.3424658477306366
 21
-8.2106180191040039
  0
LINE
  8
0
 62
140
  6
CONTINUOUS
 10
0.47089049220085144
 20
-8.2106180191040039
 11
0.47089049220085144
 21
-7.8681521415710449
  0
LINE
  8
0
 62
140
  6
CONTINUOUS
 10
0.59931516647338867
 20
-7.8681521415710449
 11
0.59931516647338867
 21
-8.2106180191040039
  0
LINE
  8
0
 62
140
  6
CONTINUOUS
 10
0.72773981094360352
 20
-8.2106180191040039
 11
0.72773981094360352
 21
-7.8681521415710449
  0
LINE
  8
0
 62
140
  6
CONTINUOUS
 10
0.85616445541381836
 20
-7.8681521415710449
 11
0.85616445541381836
 21
-8.2106180191040039
  0
LINE
  8
0
 62
140
  6
CONTINUOUS
 10
0.9845890998840332
 20
-8.2106180191040039
 11
0.9845890998840332
 21
-7.8681521415710449
  0
LINE
  8
0
 62
140
  6
CONTINUOUS
 10
1.113013744354248
 20
-7.8681521415710449
 11
1.113013744354248
 21
-8.2106180191040039
  0
ENDBLK
  0
BLOCK
  8
0
 62
140
  6
CONTINUOUS
  2
TELL_1
 70
0
 10
1.3505178710508511e-011
 20
-10.565068493159133
  0
LINE
  8
0
 62
50
  6
CONTINUOUS
 10
-1.4554794520547649
 20
-16.986301369861526
 11
-1.4554794520547636
 21
-12.91952054794379
  0
LINE
  8
0
 62
50
  6
CONTINUOUS
 10
-1.4554794520547636
 20
-8.2106164383548332
 11
-1.4554794520547649
 21
-4.1438356164370971
  0
LINE
  8
0
 62
50
  6
CONTINUOUS
 10
1.4554794520547649
 20
-4.1438356164370971
 11
1.4554794520547649
 21
-8.2106164383548332
  0
LINE
  8
0
 62
50
  6
CONTINUOUS
 10
1.4554794520547649
 20
-12.91952054794379
 11
1.4554794520547649
 21
-16.986301369861526
  0
LINE
  8
0
 62
50
  6
CONTINUOUS
 10
-1.4554794520547745
 20
-4.1438356164370971
 11
1.4554794520547649
 21
-4.1438356164370971
  0
LINE
  8
0
 62
5
  6
CONTINUOUS
 10
1.1986301369862762
 20
-4.1438356164382846
 11
1.1986301369862762
 21
-8.2106164383548332
  0
LINE
  8
0
 62
5
  6
CONTINUOUS
 10
1.1986301369862762
 20
-12.91952054794379
 11
1.1986301369862762
 21
-16.986301369862712
  0
LINE
  8
0
 62
50
  6
CONTINUOUS
 10
-1.4554794520547649
 20
-16.986301369861526
 11
1.4554794520547745
 21
-16.986301369861526
  0
LINE
  8
0
 62
5
  6
CONTINUOUS
 10
-1.1986301369520389
 20
-16.986301369862712
 11
-1.1986301369520389
 21
-12.91952054794379
  0
LINE
  8
0
 62
5
  6
CONTINUOUS
 10
-1.1986301369520389
 20
-8.2106164383548332
 11
-1.1986301369520389
 21
-4.1438356164382846
  0
LINE
  8
0
 62
50
  6
CONTINUOUS
 10
-5.1369863013697721
 20
-8.2106164383548332
 11
5.1369863013697703
 21
-8.2106164383548332
  0
LINE
  8
0
 62
50
  6
CONTINUOUS
 10
5.1369863013697703
 20
-8.2106164383548332
 11
5.1369863013697703
 21
-12.91952054794379
  0
LINE
  8
0
 62
50
  6
CONTINUOUS
 10
5.1369863013697703
 20
-12.91952054794379
 11
-5.1369863013697703
 21
-12.91952054794379
  0
LINE
  8
0
 62
50
  6
CONTINUOUS
 10
-5.1369863013697703
 20
-12.91952054794379
 11
-5.1369863013697703
 21
-8.2106164383548332
  0
CIRCLE
  8
0
 62
50
  6
CONTINUOUS
 10
4.8667310668499142e-015
 20
-10.565068493149312
 40
0.27397260273972113
  0
LINE
  8
0
 62
5
  6
DASHDOT
 10
-5.308219178082096
 20
-10.565068493149312
 11
5.3082191780820862
 21
-10.565068493149312
  0
LINE
  8
0
 62
5
  6
DASHDOT
 10
-3.6184145482029113e-012
 20
-11.001712328766999
 11
-3.6184145482029113e-012
 21
-10.128424657534135
  0
INSERT
  8
0
 62
140
  6
CONTINUOUS
  2
TELL_2
 10
0.81227463943774669
 20
-13.077357244411035
 41
1.0
 42
1.0
 50
0.0
  0
INSERT
  8
0
 62
140
  6
CONTINUOUS
  2
TELL_3
 10
0.87435777078182975
 20
-7.9991415313747156
 41
1.0
 42
1.0
 50
0.0
  0
ARC
  8
0
 62
50
  6
CONTINUOUS
 10
-2.3972602739761819
 20
-10.565068493149312
 40
0.47089041095889567
 50
270
 51
90
  0
LINE
  8
0
 62
50
  6
CONTINUOUS
 10
-2.3972602739761784
 20
-11.035958904109462
 11
-4.0239726027432727
 21
-11.035958904109462
  0
ARC
  8
0
 62
50
  6
CONTINUOUS
 10
-4.0239726027432692
 20
-10.565068493149312
 40
0.47089041095889567
 50
90
 51
270
  0
LINE
  8
0
 62
50
  6
CONTINUOUS
 10
-4.0239726027432727
 20
-10.094178082191672
 11
-2.3972602739761784
 21
-10.094178082191672
  0
LINE
  8
0
 62
5
  6
DASHDOT
 10
-3.2106164383597253
 20
-11.207191780820533
 11
-3.2106164383597253
 21
-9.92294520547809
  0
ARC
  8
0
 62
50
  6
CONTINUOUS
 10
2.397260273968945
 20
-10.565068493149312
 40
0.47089041095889567
 50
90
 51
270
  0
LINE
  8
0
 62
50
  6
CONTINUOUS
 10
2.3972602739689428
 20
-11.035958904109462
 11
4.0239726027360367
 21
-11.035958904109462
  0
ARC
  8
0
 62
50
  6
CONTINUOUS
 10
4.0239726027360323
 20
-10.565068493149312
 40
0.47089041095889567
 50
270
 51
90
  0
LINE
  8
0
 62
50
  6
CONTINUOUS
 10
4.0239726027360367
 20
-10.094178082191672
 11
2.3972602739689428
 21
-10.094178082191672
  0
LINE
  8
0
 62
5
  6
DASHDOT
 10
3.2106164383524898
 20
-11.207191780820533
 11
3.2106164383524898
 21
-9.92294520547809
  0
ENDBLK
  0
BLOCK
  8
0
 62
140
  6
CONTINUOUS
  2
TELL_5
 70
0
 10
15.796232876711462
 20
-0.17123287671173684
  0
LINE
  8
0
 62
50
  6
CONTINUOUS
 10
15.967465753423195
 20
-0.3424657534234688
 11
15.62499999999973
 21
-0.3424657534234688
  0
LINE
  8
0
 62
50
  6
CONTINUOUS
 10
15.62499999999973
 20
-0.3424657534234688
 11
15.62499999999973
 21
0
  0
LINE
  8
0
 62
50
  6
CONTINUOUS
 10
15.624999999999725
 20
0
 11
15.967465753423195
 21
-0.3424657534234688
  0
ENDBLK
  0
BLOCK
  8
0
 62
140
  6
CONTINUOUS
  2
TELL_6
 70
0
 10
10.744863013699028
 20
-0.17123287671173196
  0
LINE
  8
0
 62
50
  6
CONTINUOUS
 10
10.916095890410769
 20
-0.3424657534234688
 11
10.573630136987294
 21
-0.3424657534234688
  0
LINE
  8
0
 62
50
  6
CONTINUOUS
 10
10.573630136987296
 20
-0.3424657534234688
 11
10.916095890410769
 21
4.8667310668499142e-015
  0
LINE
  8
0
 62
50
  6
CONTINUOUS
 10
10.916095890410769
 20
0
 11
10.916095890410769
 21
-0.3424657534234688
  0
ENDBLK
  0
BLOCK
  8
0
 62
140
  6
CONTINUOUS
  2
TELL_4
 70
0
 10
13.270547945218746
 20
-8.6335809125917482e-012
  0
INSERT
  8
0
 62
140
  6
CONTINUOUS
  2
TELL_5
 10
15.796232876711462
 20
-0.17123287671173684
 41
1.0
 42
1.0
 50
0.0
  0
INSERT
  8
0
 62
140
  6
CONTINUOUS
  2
TELL_6
 10
10.744863013699028
 20
-0.17123287671173196
 41
1.0
 42
1.0
 50
0.0
  0
LINE
  8
0
 62
50
  6
CONTINUOUS
 10
8.5616438356162856
 20
-2.4315068493138403
 11
8.5616438356162856
 21
-1.9691780821905629
  0
LINE
  8
0
 62
50
  6
CONTINUOUS
 10
11.130136986301171
 20
-2.4315068493138403
 11
8.5616438356162856
 21
-2.4315068493138403
  0
LINE
  8
0
 62
50
  6
CONTINUOUS
 10
8.5616438356162856
 20
-2.1318493150672704
 11
11.130136986301171
 21
-2.1318493150672704
  0
LINE
  8
0
 62
50
  6
CONTINUOUS
 10
11.130136986301171
 20
-2.4315068493138403
 11
11.130136986301171
 21
-1.9691780821905629
  0
LINE
  8
0
 62
50
  6
CONTINUOUS
 10
6.8493150684930297
 20
-1.9691780821905629
 11
19.691780821917455
 21
-1.9691780821905629
  0
LINE
  8
0
 62
50
  6
CONTINUOUS
 10
15.967465753423195
 20
-0.3424657534234688
 11
19.691780821917455
 21
-0.3424657534234688
  0
LINE
  8
0
 62
50
  6
CONTINUOUS
 10
15.967465753423195
 20
-0.3424657534234688
 11
15.62499999999973
 21
-0.3424657534234688
  0
LINE
  8
0
 62
50
  6
CONTINUOUS
 10
15.62499999999973
 20
-0.3424657534234688
 11
10.916095890410769
 21
-0.3424657534234688
  0
LINE
  8
0
 62
50
  6
CONTINUOUS
 10
10.916095890410769
 20
-0.3424657534234688
 11
10.573630136987294
 21
-0.3424657534234688
  0
LINE
  8
0
 62
50
  6
CONTINUOUS
 10
10.573630136987294
 20
-0.3424657534234688
 11
6.8493150684930297
 21
-0.3424657534234688
  0
LINE
  8
0
 62
50
  6
CONTINUOUS
 10
19.691780821917455
 20
-1.9691780821905629
 11
19.691780821917455
 21
-0.3424657534234688
  0
LINE
  8
0
 62
5
  6
CONTINUOUS
 10
6.8493150684934774
 20
-0.59931506848996197
 11
19.691780821917902
 21
-0.59931506848996197
  0
LINE
  8
0
 62
5
  6
CONTINUOUS
 10
19.691780821917902
 20
-1.7123287671200791
 11
6.8493150684934774
 21
-1.7123287671200791
  0
LINE
  8
0
 62
50
  6
CONTINUOUS
 10
6.8493150684930297
 20
-1.9691780821905629
 11
6.8493150684930297
 21
-0.3424657534234688
  0
LINE
  8
0
 62
5
  6
DASHDOT
 10
9.8458904109587291
 20
-2.602739726026166
 11
9.8458904109587291
 21
-1.7979452054782372
  0
LINE
  8
0
 62
50
  6
CONTINUOUS
 10
15.410958904109313
 20
-2.4315068493138403
 11
15.410958904109313
 21
-1.9691780821905629
  0
LINE
  8
0
 62
50
  6
CONTINUOUS
 10
17.979452054794198
 20
-2.4315068493138403
 11
15.410958904109313
 21
-2.4315068493138403
  0
LINE
  8
0
 62
50
  6
CONTINUOUS
 10
15.410958904109313
 20
-2.1318493150672704
 11
17.979452054794198
 21
-2.1318493150672704
  0
LINE
  8
0
 62
50
  6
CONTINUOUS
 10
17.979452054794198
 20
-2.4315068493138403
 11
17.979452054794198
 21
-1.9691780821905629
  0
LINE
  8
0
 62
5
  6
DASHDOT
 10
16.695205479451758
 20
-2.602739726026166
 11
16.695205479451758
 21
-1.7979452054782372
  0
LINE
  8
0
 62
5
  6
DASHDOT
 10
13.270547945205246
 20
-0.86451052632391956
 11
13.270547945205246
 21
0.25684931506848857
  0
LINE
  8
0
 62
50
  6
CONTINUOUS
 10
10.916095890410769
 20
-0.3424657534234688
 11
10.916095890410769
 21
0
  0
LINE
  8
0
 62
50
  6
CONTINUOUS
 10
10.916095890410769
 20
0
 11
15.62499999999973
 21
0
  0
LINE
  8
0
 62
50
  6
CONTINUOUS
 10
15.62499999999973
 20
0
 11
15.62499999999973
 21
-0.3424657534234688
  0
LINE
  8
0
 62
50
  6
CONTINUOUS
 10
10.573630136987296
 20
-0.3424657534234688
 11
10.916095890410769
 21
4.8667310668499142e-015
  0
LINE
  8
0
 62
50
  6
CONTINUOUS
 10
15.967465753423195
 20
-0.3424657534234688
 11
15.624999999999725
 21
0
  0
ENDBLK
  0
BLOCK
  8
0
 62
140
  6
CONTINUOUS
  2
TELL_7
 70
0
 10
-0.586415273933937
 20
-0.16899710242959598
  0
LINE
  8
0
 62
140
  6
CONTINUOUS
 10
-1.0702054500579834
 20
-0.34246534109115601
 11
-1.0702054500579834
 21
4.1417428064960404e-007
  0
LINE
  8
0
 62
140
  6
CONTINUOUS
 10
-0.94178074598312378
 20
4.1417428064960404e-007
 11
-0.94178074598312378
 21
-0.34246534109115601
  0
LINE
  8
0
 62
140
  6
CONTINUOUS
 10
-0.81335610151290894
 20
-0.34246534109115601
 11
-0.81335610151290894
 21
4.1417428064960404e-007
  0
LINE
  8
0
 62
140
  6
CONTINUOUS
 10
-0.68493139743804932
 20
4.1417428064960404e-007
 11
-0.68493139743804932
 21
-0.34246534109115601
  0
LINE
  8
0
 62
140
  6
CONTINUOUS
 10
-0.55650675296783447
 20
-0.34246534109115601
 11
-0.55650675296783447
 21
4.1417428064960404e-007
  0
LINE
  8
0
 62
140
  6
CONTINUOUS
 10
-0.42808210849761963
 20
4.1417428064960404e-007
 11
-0.42808210849761963
 21
-0.34246534109115601
  0
LINE
  8
0
 62
140
  6
CONTINUOUS
 10
-0.29965746402740479
 20
-0.34246534109115601
 11
-0.29965746402740479
 21
4.1417428064960404e-007
  0
LINE
  8
0
 62
140
  6
CONTINUOUS
 10
-0.17123278975486755
 20
4.1417428064960404e-007
 11
-0.17123278975486755
 21
-0.34246534109115601
  0
LINE
  8
0
 62
140
  6
CONTINUOUS
 10
-0.042808141559362411
 20
-0.34246534109115601
 11
-0.042808141559362411
 21
4.1417428064960404e-007
  0
LINE
  8
0
 62
140
  6
CONTINUOUS
 10
0.085616521537303925
 20
4.1417428064960404e-007
 11
0.085616521537303925
 21
-0.34246534109115601
  0
LINE
  8
0
 62
140
  6
CONTINUOUS
 10
0.21404117345809937
 20
-0.34246534109115601
 11
0.21404117345809937
 21
4.1417428064960404e-007
  0
LINE
  8
0
 62
140
  6
CONTINUOUS
 10
0.3424658477306366
 20
4.1417428064960404e-007
 11
0.3424658477306366
 21
-0.34246534109115601
  0
LINE
  8
0
 62
140
  6
CONTINUOUS
 10
0.47089049220085144
 20
-0.34246534109115601
 11
0.47089049220085144
 21
4.1417428064960404e-007
  0
LINE
  8
0
 62
140
  6
CONTINUOUS
 10
0.59931516647338867
 20
4.1417428064960404e-007
 11
0.59931516647338867
 21
-0.34246534109115601
  0
LINE
  8
0
 62
140
  6
CONTINUOUS
 10
0.72773981094360352
 20
-0.34246534109115601
 11
0.72773981094360352
 21
4.1417428064960404e-007
  0
LINE
  8
0
 62
140
  6
CONTINUOUS
 10
0.85616445541381836
 20
4.1417428064960404e-007
 11
0.85616445541381836
 21
-0.34246534109115601
  0
LINE
  8
0
 62
140
  6
CONTINUOUS
 10
0.9845890998840332
 20
-0.34246534109115601
 11
0.9845890998840332
 21
4.1417428064960404e-007
  0
LINE
  8
0
 62
140
  6
CONTINUOUS
 10
1.113013744354248
 20
4.1417428064960404e-007
 11
1.113013744354248
 21
-0.34246534109115601
  0
ENDBLK
  0
BLOCK
  8
0
 62
140
  6
CONTINUOUS
  2
7_31_PROFIL_CR_CS
 70
0
 10
1.3505178710508511e-011
 20
-8.6335809125917482e-012
  0
LINE
  8
0
 62
50
  6
CONTINUOUS
 10
1.1558219178111246
 20
-2.1318493150672704
 11
1.1558219178111246
 21
-2.4315068493138403
  0
LINE
  8
0
 62
50
  6
CONTINUOUS
 10
1.1558219178111246
 20
-2.4315068493138403
 11
-1.1558219178052749
 21
-2.4315068493138403
  0
LINE
  8
0
 62
50
  6
CONTINUOUS
 10
-1.1558219178052749
 20
-2.4315068493138403
 11
-1.1558219178052749
 21
-2.1318493150672704
  0
LINE
  8
0
 62
50
  6
CONTINUOUS
 10
-1.1558219178052749
 20
-2.1318493150672704
 11
-0.66352739725733845
 21
-2.1318493150672704
  0
LINE
  8
0
 62
50
  6
CONTINUOUS
 10
-0.66352739725733845
 20
-2.1318493150672704
 11
-0.66352739725733845
 21
-1.7979452054782372
  0
LINE
  8
0
 62
50
  6
CONTINUOUS
 10
-0.77447792560083495
 20
-1.7979452054782372
 11
-0.66352739725733845
 21
-1.7979452054782372
  0
LINE
  8
0
 62
50
  6
CONTINUOUS
 10
-1.1558219178052749
 20
-1.7123287671220744
 11
-1.1558219178052749
 21
-1.275684931505642
  0
LINE
  8
0
 62
50
  6
CONTINUOUS
 10
-1.1558219178052749
 20
-1.275684931505642
 11
1.1558219178111246
 21
-1.275684931505642
  0
LINE
  8
0
 62
50
  6
CONTINUOUS
 10
1.1558219178111246
 20
-1.275684931505642
 11
1.1558219178081948
 21
-1.712328767123257
  0
LINE
  8
0
 62
50
  6
CONTINUOUS
 10
0.66352739726318821
 20
-1.7979452054782372
 11
0.66352739726318821
 21
-2.1318493150672704
  0
LINE
  8
0
 62
50
  6
CONTINUOUS
 10
0.66352739726318821
 20
-2.1318493150672704
 11
1.1558219178111246
 21
-2.1318493150672704
  0
LINE
  8
0
 62
50
  6
CONTINUOUS
 10
-0.72773972602446058
 20
-1.7979452054782372
 11
-0.72773972602446058
 21
-1.9691780821905629
  0
LINE
  8
0
 62
50
  6
CONTINUOUS
 10
-0.72773972602446058
 20
-1.9691780821905629
 11
-1.1986301369833563
 21
-1.9691780821905629
  0
LINE
  8
0
 62
50
  6
CONTINUOUS
 10
1.4554794520547649
 20
-0.59931506849313998
 11
1.4554794520576946
 21
-1.712328767123257
  0
LINE
  8
0
 62
50
  6
CONTINUOUS
 10
1.1986301369862762
 20
-1.9691780821917455
 11
0.72773972603031034
 21
-1.9691780821905629
  0
LINE
  8
0
 62
50
  6
CONTINUOUS
 10
0.72773972603031034
 20
-1.9691780821905629
 11
0.72773972603031034
 21
-1.7979452054782372
  0
LINE
  8
0
 62
50
  6
CONTINUOUS
 10
0.66352739726318821
 20
-1.7979452054782372
 11
1.1986301369862762
 21
-1.7979452054794198
  0
LINE
  8
0
 62
50
  6
CONTINUOUS
 10
1.284246575342439
 20
-1.712328767123257
 11
1.2842465753453689
 21
-0.59931506849313998
  0
LINE
  8
0
 62
50
  6
CONTINUOUS
 10
1.1986301369862762
 20
-0.51369863013697714
 11
-1.1986301369862811
 21
-0.51369863013697714
  0
LINE
  8
0
 62
50
  6
CONTINUOUS
 10
-1.2842465753424439
 20
-0.59931506849313998
 11
-1.2842465753424439
 21
-1.7123287671146965
  0
LINE
  8
0
 62
50
  6
CONTINUOUS
 10
-1.1624470666352549
 20
-1.7899236119006532
 11
-0.80845359872829492
 21
-1.6248537468837367
  0
LINE
  8
0
 62
50
  6
CONTINUOUS
 10
-0.80845359872829492
 20
-1.6248537468837367
 11
-0.73608745801927311
 21
-1.7800434364448072
  0
LINE
  8
0
 62
50
  6
CONTINUOUS
 10
-0.73608745801927311
 20
-1.7800434364448072
 11
-1.0900809259160762
 21
-1.9451133014640061
  0
LINE
  8
0
 62
50
  6
CONTINUOUS
 10
-1.4554794520547698
 20
-1.712328767123257
 11
-1.4554794520518448
 21
-0.59931506849313998
  0
ARC
  8
0
 62
50
  6
CONTINUOUS
 10
-0.64212328766829774
 20
-1.4362157534234472
 40
0.26755136986301059
 50
36.869897645903166
 51
143.13010235484816
  0
ARC
  8
0
 62
50
  6
CONTINUOUS
 10
0.6421232876741475
 20
-1.4362157534234472
 40
0.26755136986301059
 50
36.869897645903166
 51
143.13010235484816
  0
ARC
  8
0
 62
50
  6
CONTINUOUS
 10
-1.070205479449112
 20
-1.7123287671220744
 40
0.085616438356162852
 50
180.00000000079143
 51
226.47360770658048
  0
ARC
  8
0
 62
50
  6
CONTINUOUS
 10
1.0702054794549618
 20
-1.7123287671220744
 40
0.085616438356162852
 50
270
 51
359.99999999920857
  0
ARC
  8
0
 62
50
  6
CONTINUOUS
 10
1.1986301369892061
 20
-0.59931506849195737
 40
0.085616438356162852
 50
359.99999999920857
 51
90
  0
ARC
  8
0
 62
50
  6
CONTINUOUS
 10
1.1986301369892061
 20
-1.7123287671220744
 40
0.085616438356162852
 50
270
 51
359.99999999920857
  0
ARC
  8
0
 62
50
  6
CONTINUOUS
 10
-1.1986301369833563
 20
-0.59931506849313998
 40
0.085616438356162852
 50
90
 51
180
  0
ARC
  8
0
 62
50
  6
CONTINUOUS
 10
1.1986301369892061
 20
-1.7123287671220744
 40
0.25684931506848857
 50
270
 51
359.99999999973619
  0
ARC
  8
0
 62
50
  6
CONTINUOUS
 10
1.1986301369892061
 20
-0.59931506849195737
 40
0.25684931506848857
 50
359.99999999973619
 51
90
  0
ARC
  8
0
 62
50
  6
CONTINUOUS
 10
-1.1986301369833563
 20
-0.59931506849195737
 40
0.25684931506848857
 50
90
 51
180.00000000026381
  0
ARC
  8
0
 62
50
  6
CONTINUOUS
 10
-1.1986301369862786
 20
-1.7123287671186775
 40
0.085616438356162852
 50
179.99999999733586
 51
294.9999999974774
  0
ARC
  8
0
 62
50
  6
CONTINUOUS
 10
-1.1986301369833563
 20
-1.7123287671220744
 40
0.25684931506848857
 50
180.00000000026353
 51
295.00000000072612
  0
LINE
  8
0
 62
5
  6
DASHDOT
 10
-1.2166827667124786e-015
 20
-1.005933988126513
 11
-1.2166827667124786e-015
 21
-2.602739726026166
  0
POLYLINE
  8
0
 62
50
  6
CONTINUOUS
 66
1
 70
1
  0
VERTEX
  8
0
 62
50
  6
CONTINUOUS
 10
-5.1369863013697721
 20
-0.34246575342465141
  0
VERTEX
  8
0
 62
50
  6
CONTINUOUS
 10
5.1369863013697703
 20
-0.34246575342465141
  0
VERTEX
  8
0
 62
50
  6
CONTINUOUS
 10
5.1369863013697703
 20
0
  0
VERTEX
  8
0
 62
50
  6
CONTINUOUS
 10
-5.1369863013697721
 20
0
  0
SEQEND
  0
INSERT
  8
0
 62
140
  6
CONTINUOUS
  2
TELL_7
 10
-0.586415273933937
 20
-0.16899710242959598
 41
1.0
 42
1.0
 50
0.0
  0
LINE
  8
0
 62
5
  6
DASHDOT
 10
-3.2106164383561095
 20
-0.51369863013697714
 11
-3.2106164383561095
 21
0.1712328767123257
  0
LINE
  8
0
 62
5
  6
DASHDOT
 10
3.2106164383561056
 20
-0.51369863013697714
 11
3.2106164383561056
 21
0.1712328767123257
  0
ENDBLK
  0
ENDSEC
  0
SECTION
  2
ENTITIES
  0
INSERT
  8
0
 62
140
  6
CONTINUOUS
  2
TELL_1
 10
1.3505178710508511e-011
 20
-10.565068493159133
 41
1.0
 42
1.0
 50
0.0
  0
INSERT
  8
0
 62
140
  6
CONTINUOUS
  2
TELL_4
 10
13.270547945218746
 20
-8.6335809125917482e-012
 41
1.0
 42
1.0
 50
0.0
  0
INSERT
  8
0
 62
140
  6
CONTINUOUS
  2
7_31_PROFIL_CR_CS
 10
1.3505178710508511e-011
 20
-8.6335809125917482e-012
 41
1.0
 42
1.0
 50
0.0
  0
ENDSEC
  0
EOF
