  0
SECTION
  2
HEADER
  9
$ACADVER
  1
AC1009
  9
$EXTMIN
 10
-4.7794117647057908
 20
-18.235294117646717
  9
$EXTMAX
 10
20.220588235294208
 20
0.27573529411764186
  9
$TEXTSTYLE
  7
STANDARD
  9
$DIMLFAC
 40
1
  9
$REGENMODE
 70
1
  9
$DRAGMODE
 70
2
  9
$DIMASO
 70
1
  9
$LTSCALE
 40
1.0000000000
  0
ENDSEC
  0
SECTION
  2
TABLES
  0
TABLE
  2
LTYPE
 70
3
  0
LTYPE
  2
CONTINUOUS
 70
64
  3
CONTINUOUS
 72
65
 73
0
 40
0.0000000000
  0
LTYPE
  2
DOT
 70
64
  3
DOT
 72
65
 73
2
 40
0.2500000000
 49
0.0000000000
 49
-0.2500000000
  0
LTYPE
  2
DASHDOT
 70
64
  3
DASHDOT
 72
65
 73
4
 40
1.0000000000
 49
0.5000000000
 49
-0.2500000000
 49
0.0000000000
 49
-0.2500000000
  0
ENDTAB
  0
TABLE
  2
LAYER
 70
1
  0
LAYER
  2
0
 70
0
 62
2
  6
CONTINUOUS
  0
ENDTAB
  0
TABLE
  2
STYLE
 70
0
  0
STYLE
  2
Standard
 70
0
 40
0
 41
1
 50
0
 71
0
 42
2.5
  3
txt
  4

  0
ENDTAB
  0
ENDSEC
  0
SECTION
  2
BLOCKS
  0
BLOCK
  8
0
 62
140
  6
CONTINUOUS
  2
TELL_2
 70
0
 10
0.87200071586698791
 20
-13.349589394735373
  0
LINE
  8
0
 62
140
  6
CONTINUOUS
 10
-1.1488969326019287
 20
-13.547796249389648
 11
-1.1488969326019287
 21
-13.180149078369141
  0
LINE
  8
0
 62
140
  6
CONTINUOUS
 10
-1.0110293626785278
 20
-13.180149078369141
 11
-1.0110293626785278
 21
-13.547796249389648
  0
LINE
  8
0
 62
140
  6
CONTINUOUS
 10
-0.8731616735458374
 20
-13.547796249389648
 11
-0.8731616735458374
 21
-13.180149078369141
  0
LINE
  8
0
 62
140
  6
CONTINUOUS
 10
-0.73529404401779175
 20
-13.180149078369141
 11
-0.73529404401779175
 21
-13.547796249389648
  0
LINE
  8
0
 62
140
  6
CONTINUOUS
 10
-0.59742635488510132
 20
-13.547796249389648
 11
-0.59742635488510132
 21
-13.180149078369141
  0
LINE
  8
0
 62
140
  6
CONTINUOUS
 10
-0.45955872535705566
 20
-13.180149078369141
 11
-0.45955872535705566
 21
-13.547796249389648
  0
LINE
  8
0
 62
140
  6
CONTINUOUS
 10
-0.32169109582901001
 20
-13.547796249389648
 11
-0.32169109582901001
 21
-13.180149078369141
  0
LINE
  8
0
 62
140
  6
CONTINUOUS
 10
-0.18382343649864197
 20
-13.180149078369141
 11
-0.18382343649864197
 21
-13.547796249389648
  0
LINE
  8
0
 62
140
  6
CONTINUOUS
 10
-0.045955795794725418
 20
-13.547796249389648
 11
-0.045955795794725418
 21
-13.180149078369141
  0
LINE
  8
0
 62
140
  6
CONTINUOUS
 10
0.091911852359771729
 20
-13.180149078369141
 11
0.091911852359771729
 21
-13.547796249389648
  0
LINE
  8
0
 62
140
  6
CONTINUOUS
 10
0.22977949678897858
 20
-13.547796249389648
 11
0.22977949678897858
 21
-13.180149078369141
  0
LINE
  8
0
 62
140
  6
CONTINUOUS
 10
0.36764714121818542
 20
-13.180149078369141
 11
0.36764714121818542
 21
-13.547796249389648
  0
LINE
  8
0
 62
140
  6
CONTINUOUS
 10
0.50551480054855347
 20
-13.547796249389648
 11
0.50551480054855347
 21
-13.180149078369141
  0
LINE
  8
0
 62
140
  6
CONTINUOUS
 10
0.64338243007659912
 20
-13.180149078369141
 11
0.64338243007659912
 21
-13.547796249389648
  0
LINE
  8
0
 62
140
  6
CONTINUOUS
 10
0.78125005960464478
 20
-13.547796249389648
 11
0.78125005960464478
 21
-13.180149078369141
  0
LINE
  8
0
 62
140
  6
CONTINUOUS
 10
0.91911774873733521
 20
-13.180149078369141
 11
0.91911774873733521
 21
-13.547796249389648
  0
LINE
  8
0
 62
140
  6
CONTINUOUS
 10
1.0569853782653809
 20
-13.547796249389648
 11
1.0569853782653809
 21
-13.180149078369141
  0
LINE
  8
0
 62
140
  6
CONTINUOUS
 10
1.1948530673980713
 20
-13.180149078369141
 11
1.1948530673980713
 21
-13.547796249389648
  0
ENDBLK
  0
BLOCK
  8
0
 62
140
  6
CONTINUOUS
  2
TELL_3
 70
0
 10
0.93864878333931234
 20
-9.2766519380934334
  0
LINE
  8
0
 62
140
  6
CONTINUOUS
 10
-1.1488969326019287
 20
-9.5036783218383789
 11
-1.1488969326019287
 21
-9.1360311508178711
  0
LINE
  8
0
 62
140
  6
CONTINUOUS
 10
-1.0110293626785278
 20
-9.1360311508178711
 11
-1.0110293626785278
 21
-9.5036783218383789
  0
LINE
  8
0
 62
140
  6
CONTINUOUS
 10
-0.8731616735458374
 20
-9.5036783218383789
 11
-0.8731616735458374
 21
-9.1360311508178711
  0
LINE
  8
0
 62
140
  6
CONTINUOUS
 10
-0.73529404401779175
 20
-9.1360311508178711
 11
-0.73529404401779175
 21
-9.5036783218383789
  0
LINE
  8
0
 62
140
  6
CONTINUOUS
 10
-0.59742635488510132
 20
-9.5036783218383789
 11
-0.59742635488510132
 21
-9.1360311508178711
  0
LINE
  8
0
 62
140
  6
CONTINUOUS
 10
-0.45955872535705566
 20
-9.1360311508178711
 11
-0.45955872535705566
 21
-9.5036783218383789
  0
LINE
  8
0
 62
140
  6
CONTINUOUS
 10
-0.32169109582901001
 20
-9.5036783218383789
 11
-0.32169109582901001
 21
-9.1360311508178711
  0
LINE
  8
0
 62
140
  6
CONTINUOUS
 10
-0.18382343649864197
 20
-9.1360311508178711
 11
-0.18382343649864197
 21
-9.5036783218383789
  0
LINE
  8
0
 62
140
  6
CONTINUOUS
 10
-0.045955795794725418
 20
-9.5036783218383789
 11
-0.045955795794725418
 21
-9.1360311508178711
  0
LINE
  8
0
 62
140
  6
CONTINUOUS
 10
0.091911852359771729
 20
-9.1360311508178711
 11
0.091911852359771729
 21
-9.5036783218383789
  0
LINE
  8
0
 62
140
  6
CONTINUOUS
 10
0.22977949678897858
 20
-9.5036783218383789
 11
0.22977949678897858
 21
-9.1360311508178711
  0
LINE
  8
0
 62
140
  6
CONTINUOUS
 10
0.36764714121818542
 20
-9.1360311508178711
 11
0.36764714121818542
 21
-9.5036783218383789
  0
LINE
  8
0
 62
140
  6
CONTINUOUS
 10
0.50551480054855347
 20
-9.5036783218383789
 11
0.50551480054855347
 21
-9.1360311508178711
  0
LINE
  8
0
 62
140
  6
CONTINUOUS
 10
0.64338243007659912
 20
-9.1360311508178711
 11
0.64338243007659912
 21
-9.5036783218383789
  0
LINE
  8
0
 62
140
  6
CONTINUOUS
 10
0.78125005960464478
 20
-9.5036783218383789
 11
0.78125005960464478
 21
-9.1360311508178711
  0
LINE
  8
0
 62
140
  6
CONTINUOUS
 10
0.91911774873733521
 20
-9.1360311508178711
 11
0.91911774873733521
 21
-9.5036783218383789
  0
LINE
  8
0
 62
140
  6
CONTINUOUS
 10
1.0569853782653809
 20
-9.5036783218383789
 11
1.0569853782653809
 21
-9.1360311508178711
  0
LINE
  8
0
 62
140
  6
CONTINUOUS
 10
1.1948530673980713
 20
-9.1360311508178711
 11
1.1948530673980713
 21
-9.5036783218383789
  0
ENDBLK
  0
BLOCK
  8
0
 62
140
  6
CONTINUOUS
  2
TELL_1
 70
0
 10
1.4494288122664857e-011
 20
-11.341911764714938
  0
LINE
  8
0
 62
50
  6
CONTINUOUS
 10
-1.5624999999999705
 20
-18.235294117645442
 11
-1.5624999999999691
 21
-13.180147058822008
  0
LINE
  8
0
 62
50
  6
CONTINUOUS
 10
-1.5624999999999691
 20
-9.5036764705867931
 11
-1.5624999999999705
 21
-4.4485294117633503
  0
LINE
  8
0
 62
50
  6
CONTINUOUS
 10
1.5624999999999625
 20
-4.4485294117633503
 11
1.5624999999999625
 21
-9.5036764705867931
  0
LINE
  8
0
 62
50
  6
CONTINUOUS
 10
1.5624999999999625
 20
-13.180147058822008
 11
1.5624999999999625
 21
-18.235294117645442
  0
LINE
  8
0
 62
50
  6
CONTINUOUS
 10
-1.5624999999999809
 20
-4.4485294117633503
 11
1.5624999999999625
 21
-4.4485294117633503
  0
LINE
  8
0
 62
5
  6
CONTINUOUS
 10
1.2867647058823206
 20
-4.4485294117646248
 11
1.2867647058823206
 21
-9.5036764705867931
  0
LINE
  8
0
 62
5
  6
CONTINUOUS
 10
1.2867647058823206
 20
-13.180147058822008
 11
1.2867647058823206
 21
-18.235294117646717
  0
LINE
  8
0
 62
50
  6
CONTINUOUS
 10
-1.5624999999999705
 20
-18.235294117645442
 11
1.5624999999999729
 21
-18.235294117645442
  0
LINE
  8
0
 62
5
  6
CONTINUOUS
 10
-1.2867647058455736
 20
-18.235294117646717
 11
-1.2867647058455736
 21
-13.180147058822008
  0
LINE
  8
0
 62
5
  6
CONTINUOUS
 10
-1.2867647058455736
 20
-9.5036764705867931
 11
-1.2867647058455736
 21
-4.4485294117646248
  0
LINE
  8
0
 62
50
  6
CONTINUOUS
 10
-4.064935414347703
 20
-9.5036764705867931
 11
4.0649354143476861
 21
-9.5036764705867842
  0
LINE
  8
0
 62
50
  6
CONTINUOUS
 10
4.0649354143476861
 20
-9.5036764705867842
 11
4.5955882352940307
 21
-10.422794117645589
  0
LINE
  8
0
 62
50
  6
CONTINUOUS
 10
4.5955882352940307
 20
-10.422794117645589
 11
4.5955882352940307
 21
-12.261029411763202
  0
LINE
  8
0
 62
50
  6
CONTINUOUS
 10
4.5955882352940307
 20
-12.261029411763202
 11
4.0649354143477012
 21
-13.180147058822008
  0
LINE
  8
0
 62
50
  6
CONTINUOUS
 10
4.0649354143477012
 20
-13.180147058822008
 11
-4.0649354143477003
 21
-13.180147058822008
  0
LINE
  8
0
 62
50
  6
CONTINUOUS
 10
-4.0649354143477003
 20
-13.180147058822008
 11
-4.5955882352940289
 21
-12.261029411763202
  0
LINE
  8
0
 62
50
  6
CONTINUOUS
 10
-4.5955882352940289
 20
-12.261029411763202
 11
-4.5955882352940289
 21
-10.4227941176456
  0
LINE
  8
0
 62
50
  6
CONTINUOUS
 10
-4.5955882352940316
 20
-10.4227941176456
 11
-4.064935414347703
 21
-9.5036764705867931
  0
LINE
  8
0
 62
50
  6
CONTINUOUS
 10
-3.6534926470587554
 20
-11.824448529410269
 11
-2.7803308823528896
 21
-11.824448529410269
  0
LINE
  8
0
 62
50
  6
CONTINUOUS
 10
-2.7803308823528896
 20
-10.859374999998533
 11
-3.6534926470587554
 21
-10.859374999998533
  0
LINE
  8
0
 62
50
  6
CONTINUOUS
 10
2.7803308823528883
 20
-11.824448529410269
 11
3.6534926470587541
 21
-11.824448529410269
  0
LINE
  8
0
 62
50
  6
CONTINUOUS
 10
3.6534926470587541
 20
-10.859374999998522
 11
2.7803308823528883
 21
-10.859374999998522
  0
ARC
  8
0
 62
50
  6
CONTINUOUS
 10
-2.7803308823528896
 20
-11.341911764704406
 40
0.48253676470587314
 50
270
 51
90
  0
ARC
  8
0
 62
50
  6
CONTINUOUS
 10
-3.6534926470587554
 20
-11.341911764704406
 40
0.48253676470587303
 50
90
 51
270.00000000000006
  0
CIRCLE
  8
0
 62
50
  6
CONTINUOUS
 10
1.3061447348531006e-015
 20
-11.341911764704395
 40
0.28492647058822984
  0
ARC
  8
0
 62
50
  6
CONTINUOUS
 10
2.7803308823528883
 20
-11.341911764704395
 40
0.48253676470587442
 50
90.000000000000114
 51
270.00000000000011
  0
ARC
  8
0
 62
50
  6
CONTINUOUS
 10
3.6534926470587541
 20
-11.341911764704395
 40
0.48253676470587303
 50
270
 51
90.000000000000114
  0
LINE
  8
0
 62
5
  6
DASHDOT
 10
-4.7794117647057908
 20
-11.341911764704395
 11
4.779411764705781
 21
-11.341911764704395
  0
LINE
  8
0
 62
5
  6
DASHDOT
 10
-3.8883928756576807e-012
 20
-11.810661764705737
 11
-3.8883928756576807e-012
 21
-10.873161764705751
  0
LINE
  8
0
 62
5
  6
DASHDOT
 10
-3.2169117647058241
 20
-12.00827205882203
 11
-3.2169117647058241
 21
-10.675551470586761
  0
LINE
  8
0
 62
5
  6
DASHDOT
 10
3.2169117647058161
 20
-12.00827205882203
 11
3.2169117647058161
 21
-10.675551470586761
  0
INSERT
  8
0
 62
140
  6
CONTINUOUS
  2
TELL_2
 10
0.87200071586698791
 20
-13.349589394735373
 41
1.0
 42
1.0
 50
0.0
  0
INSERT
  8
0
 62
140
  6
CONTINUOUS
  2
TELL_3
 10
0.93864878333931234
 20
-9.2766519380934334
 41
1.0
 42
1.0
 50
0.0
  0
ENDBLK
  0
BLOCK
  8
0
 62
140
  6
CONTINUOUS
  2
TELL_5
 70
0
 10
15.349264705881424
 20
-0.18382352941112906
  0
LINE
  8
0
 62
50
  6
CONTINUOUS
 10
15.533088235292549
 20
-0.36764705882225285
 11
15.165441176470301
 21
-0.36764705882225285
  0
LINE
  8
0
 62
50
  6
CONTINUOUS
 10
15.165441176470301
 20
-0.36764705882225285
 11
15.165441176470301
 21
0
  0
LINE
  8
0
 62
50
  6
CONTINUOUS
 10
15.165441176470296
 20
0
 11
15.533088235292549
 21
-0.36764705882225285
  0
ENDBLK
  0
BLOCK
  8
0
 62
140
  6
CONTINUOUS
  2
TELL_6
 70
0
 10
11.305147058823945
 20
-0.18382352941112381
  0
LINE
  8
0
 62
50
  6
CONTINUOUS
 10
11.488970588235073
 20
-0.36764705882225285
 11
11.121323529412816
 21
-0.36764705882225285
  0
LINE
  8
0
 62
50
  6
CONTINUOUS
 10
11.121323529412818
 20
-0.36764705882225285
 11
11.488970588235073
 21
5.2245789394124023e-015
  0
LINE
  8
0
 62
50
  6
CONTINUOUS
 10
11.488970588235073
 20
0
 11
11.488970588235073
 21
-0.36764705882225285
  0
ENDBLK
  0
BLOCK
  8
0
 62
140
  6
CONTINUOUS
  2
TELL_4
 70
0
 10
13.327205882367181
 20
-0.36764705883279086
  0
INSERT
  8
0
 62
140
  6
CONTINUOUS
  2
TELL_5
 10
15.349264705881424
 20
-0.18382352941112906
 41
1.0
 42
1.0
 50
0.0
  0
INSERT
  8
0
 62
140
  6
CONTINUOUS
  2
TELL_6
 10
11.305147058823945
 20
-0.18382352941112381
 41
1.0
 42
1.0
 50
0.0
  0
LINE
  8
0
 62
50
  6
CONTINUOUS
 10
8.2720588235292531
 20
-2.6102941176457377
 11
8.2720588235292531
 21
-2.1139705882339843
  0
LINE
  8
0
 62
50
  6
CONTINUOUS
 10
11.029411764705671
 20
-2.6102941176457377
 11
8.2720588235292531
 21
-2.6102941176457377
  0
LINE
  8
0
 62
50
  6
CONTINUOUS
 10
8.2720588235292531
 20
-2.2886029411751556
 11
11.029411764705671
 21
-2.2886029411751556
  0
LINE
  8
0
 62
50
  6
CONTINUOUS
 10
11.029411764705671
 20
-2.6102941176457377
 11
11.029411764705671
 21
-2.1139705882339843
  0
LINE
  8
0
 62
50
  6
CONTINUOUS
 10
6.4338235294116402
 20
-2.1139705882339843
 11
20.220588235293729
 21
-2.1139705882339843
  0
LINE
  8
0
 62
50
  6
CONTINUOUS
 10
20.220588235293729
 20
-0.36764705882225285
 11
15.533088235292549
 21
-0.36764705882225285
  0
LINE
  8
0
 62
50
  6
CONTINUOUS
 10
15.533088235292549
 20
-0.36764705882225285
 11
15.165441176470301
 21
-0.36764705882225285
  0
LINE
  8
0
 62
50
  6
CONTINUOUS
 10
15.165441176470301
 20
-0.36764705882225285
 11
11.488970588235073
 21
-0.36764705882225285
  0
LINE
  8
0
 62
50
  6
CONTINUOUS
 10
11.488970588235073
 20
-0.36764705882225285
 11
11.121323529412816
 21
-0.36764705882225285
  0
LINE
  8
0
 62
50
  6
CONTINUOUS
 10
11.121323529412816
 20
-0.36764705882225285
 11
6.4338235294116402
 21
-0.36764705882225285
  0
LINE
  8
0
 62
50
  6
CONTINUOUS
 10
20.220588235293729
 20
-2.1139705882339843
 11
20.220588235293729
 21
-0.36764705882225285
  0
LINE
  8
0
 62
5
  6
CONTINUOUS
 10
6.4338235294121207
 20
-0.64338235293775259
 11
20.220588235294208
 21
-0.64338235293775259
  0
LINE
  8
0
 62
5
  6
CONTINUOUS
 10
20.220588235294208
 20
-1.8382352941142006
 11
6.4338235294121207
 21
-1.8382352941142006
  0
LINE
  8
0
 62
50
  6
CONTINUOUS
 10
6.4338235294116402
 20
-2.1139705882339843
 11
6.4338235294116402
 21
-0.36764705882225285
  0
LINE
  8
0
 62
5
  6
DASHDOT
 10
9.650735294117462
 20
-2.7941176470574991
 11
9.650735294117462
 21
-1.9301470588222231
  0
LINE
  8
0
 62
50
  6
CONTINUOUS
 10
15.624999999999698
 20
-2.6102941176457377
 11
15.624999999999698
 21
-2.1139705882339843
  0
LINE
  8
0
 62
50
  6
CONTINUOUS
 10
18.382352941176116
 20
-2.6102941176457377
 11
15.624999999999698
 21
-2.6102941176457377
  0
LINE
  8
0
 62
50
  6
CONTINUOUS
 10
15.624999999999698
 20
-2.2886029411751556
 11
18.382352941176116
 21
-2.2886029411751556
  0
LINE
  8
0
 62
50
  6
CONTINUOUS
 10
18.382352941176116
 20
-2.6102941176457377
 11
18.382352941176116
 21
-2.1139705882339843
  0
LINE
  8
0
 62
5
  6
DASHDOT
 10
17.003676470587909
 20
-2.7941176470574991
 11
17.003676470587909
 21
-1.9301470588222231
  0
LINE
  8
0
 62
5
  6
DASHDOT
 10
13.327205882352688
 20
-0.92807747678891261
 11
13.327205882352688
 21
0.27573529411764186
  0
LINE
  8
0
 62
50
  6
CONTINUOUS
 10
11.488970588235073
 20
-0.36764705882225285
 11
11.488970588235073
 21
0
  0
LINE
  8
0
 62
50
  6
CONTINUOUS
 10
11.488970588235073
 20
0
 11
15.165441176470301
 21
0
  0
LINE
  8
0
 62
50
  6
CONTINUOUS
 10
15.165441176470301
 20
0
 11
15.165441176470301
 21
-0.36764705882225285
  0
LINE
  8
0
 62
50
  6
CONTINUOUS
 10
12.408088235293883
 20
-0.36764705882225285
 11
12.408088235293883
 21
0
  0
LINE
  8
0
 62
50
  6
CONTINUOUS
 10
14.246323529411494
 20
-0.36764705882225285
 11
14.246323529411494
 21
0
  0
LINE
  8
0
 62
50
  6
CONTINUOUS
 10
11.121323529412818
 20
-0.36764705882225285
 11
11.488970588235073
 21
5.2245789394124023e-015
  0
LINE
  8
0
 62
50
  6
CONTINUOUS
 10
15.533088235292549
 20
-0.36764705882225285
 11
15.165441176470296
 21
0
  0
ENDBLK
  0
BLOCK
  8
0
 62
140
  6
CONTINUOUS
  2
TELL_7
 70
0
 10
-0.62953404407614144
 20
-0.18142335996118372
  0
LINE
  8
0
 62
140
  6
CONTINUOUS
 10
-1.1488969326019287
 20
-0.36764663457870483
 11
-1.1488969326019287
 21
4.4462825599111966e-007
  0
LINE
  8
0
 62
140
  6
CONTINUOUS
 10
-1.0110293626785278
 20
4.4462825599111966e-007
 11
-1.0110293626785278
 21
-0.36764663457870483
  0
LINE
  8
0
 62
140
  6
CONTINUOUS
 10
-0.8731616735458374
 20
-0.36764663457870483
 11
-0.8731616735458374
 21
4.4462825599111966e-007
  0
LINE
  8
0
 62
140
  6
CONTINUOUS
 10
-0.73529404401779175
 20
4.4462825599111966e-007
 11
-0.73529404401779175
 21
-0.36764663457870483
  0
LINE
  8
0
 62
140
  6
CONTINUOUS
 10
-0.59742635488510132
 20
-0.36764663457870483
 11
-0.59742635488510132
 21
4.4462825599111966e-007
  0
LINE
  8
0
 62
140
  6
CONTINUOUS
 10
-0.45955872535705566
 20
4.4462825599111966e-007
 11
-0.45955872535705566
 21
-0.36764663457870483
  0
LINE
  8
0
 62
140
  6
CONTINUOUS
 10
-0.32169109582901001
 20
-0.36764663457870483
 11
-0.32169109582901001
 21
4.4462825599111966e-007
  0
LINE
  8
0
 62
140
  6
CONTINUOUS
 10
-0.18382343649864197
 20
4.4462825599111966e-007
 11
-0.18382343649864197
 21
-0.36764663457870483
  0
LINE
  8
0
 62
140
  6
CONTINUOUS
 10
-0.045955795794725418
 20
-0.36764663457870483
 11
-0.045955795794725418
 21
4.4462825599111966e-007
  0
LINE
  8
0
 62
140
  6
CONTINUOUS
 10
0.091911852359771729
 20
4.4462825599111966e-007
 11
0.091911852359771729
 21
-0.36764663457870483
  0
LINE
  8
0
 62
140
  6
CONTINUOUS
 10
0.22977949678897858
 20
-0.36764663457870483
 11
0.22977949678897858
 21
4.4462825599111966e-007
  0
LINE
  8
0
 62
140
  6
CONTINUOUS
 10
0.36764714121818542
 20
4.4462825599111966e-007
 11
0.36764714121818542
 21
-0.36764663457870483
  0
LINE
  8
0
 62
140
  6
CONTINUOUS
 10
0.50551480054855347
 20
-0.36764663457870483
 11
0.50551480054855347
 21
4.4462825599111966e-007
  0
LINE
  8
0
 62
140
  6
CONTINUOUS
 10
0.64338243007659912
 20
4.4462825599111966e-007
 11
0.64338243007659912
 21
-0.36764663457870483
  0
LINE
  8
0
 62
140
  6
CONTINUOUS
 10
0.78125005960464478
 20
-0.36764663457870483
 11
0.78125005960464478
 21
4.4462825599111966e-007
  0
LINE
  8
0
 62
140
  6
CONTINUOUS
 10
0.91911774873733521
 20
4.4462825599111966e-007
 11
0.91911774873733521
 21
-0.36764663457870483
  0
LINE
  8
0
 62
140
  6
CONTINUOUS
 10
1.0569853782653809
 20
-0.36764663457870483
 11
1.0569853782653809
 21
4.4462825599111966e-007
  0
LINE
  8
0
 62
140
  6
CONTINUOUS
 10
1.1948530673980713
 20
4.4462825599111966e-007
 11
1.1948530673980713
 21
-0.36764663457870483
  0
ENDBLK
  0
BLOCK
  8
0
 62
140
  6
CONTINUOUS
  2
7_30_PROFIL_C
 70
0
 10
1.4494288122664857e-011
 20
-0.36764705883279086
  0
LINE
  8
0
 62
50
  6
CONTINUOUS
 10
1.2408088235325256
 20
-2.2886029411751556
 11
1.2408088235325256
 21
-2.6102941176457377
  0
LINE
  8
0
 62
50
  6
CONTINUOUS
 10
1.2408088235325256
 20
-2.6102941176457377
 11
-1.2408088235262535
 21
-2.6102941176457377
  0
LINE
  8
0
 62
50
  6
CONTINUOUS
 10
-1.2408088235262535
 20
-2.6102941176457377
 11
-1.2408088235262535
 21
-2.2886029411751556
  0
LINE
  8
0
 62
50
  6
CONTINUOUS
 10
-1.2408088235262535
 20
-2.2886029411751556
 11
-0.71231617646743994
 21
-2.2886029411751556
  0
LINE
  8
0
 62
50
  6
CONTINUOUS
 10
-0.71231617646743994
 20
-2.2886029411751556
 11
-0.71231617646743994
 21
-1.9301470588222231
  0
LINE
  8
0
 62
50
  6
CONTINUOUS
 10
-0.83142483189501704
 20
-1.9301470588222231
 11
-0.71231617646743994
 21
-1.9301470588222231
  0
LINE
  8
0
 62
50
  6
CONTINUOUS
 10
-1.2408088235262535
 20
-1.8382352941163427
 11
-1.2408088235262535
 21
-1.3694852941163493
  0
LINE
  8
0
 62
50
  6
CONTINUOUS
 10
-1.2408088235262535
 20
-1.3694852941163493
 11
1.2408088235325256
 21
-1.3694852941163493
  0
LINE
  8
0
 62
50
  6
CONTINUOUS
 10
1.2408088235325256
 20
-1.3694852941163493
 11
1.2408088235293804
 21
-1.8382352941176121
  0
LINE
  8
0
 62
50
  6
CONTINUOUS
 10
0.71231617647371215
 20
-1.9301470588222231
 11
0.71231617647371215
 21
-2.2886029411751556
  0
LINE
  8
0
 62
50
  6
CONTINUOUS
 10
0.71231617647371215
 20
-2.2886029411751556
 11
1.2408088235325256
 21
-2.2886029411751556
  0
LINE
  8
0
 62
50
  6
CONTINUOUS
 10
-0.78124999999685041
 20
-1.9301470588222231
 11
-0.78124999999685041
 21
-2.1139705882339843
  0
LINE
  8
0
 62
50
  6
CONTINUOUS
 10
-0.78124999999685041
 20
-2.1139705882339843
 11
-1.2867647058791938
 21
-2.1139705882339843
  0
LINE
  8
0
 62
50
  6
CONTINUOUS
 10
1.5624999999999625
 20
-0.6433823529411643
 11
1.5625000000031077
 21
-1.8382352941176121
  0
LINE
  8
0
 62
50
  6
CONTINUOUS
 10
1.2867647058823206
 20
-2.113970588235254
 11
0.7812500000031225
 21
-2.1139705882339843
  0
LINE
  8
0
 62
50
  6
CONTINUOUS
 10
0.7812500000031225
 20
-2.1139705882339843
 11
0.7812500000031225
 21
-1.9301470588222231
  0
LINE
  8
0
 62
50
  6
CONTINUOUS
 10
0.71231617647371215
 20
-1.9301470588222231
 11
1.2867647058823206
 21
-1.9301470588234928
  0
LINE
  8
0
 62
50
  6
CONTINUOUS
 10
1.3786764705882013
 20
-1.8382352941176121
 11
1.3786764705913466
 21
-0.6433823529411643
  0
LINE
  8
0
 62
50
  6
CONTINUOUS
 10
1.2867647058823206
 20
-0.55147058823528372
 11
-1.2867647058823337
 21
-0.55147058823528372
  0
LINE
  8
0
 62
50
  6
CONTINUOUS
 10
-1.3786764705882144
 20
-0.6433823529411643
 11
-1.3786764705882144
 21
-1.8382352941084221
  0
LINE
  8
0
 62
50
  6
CONTINUOUS
 10
-1.2479211156525556
 20
-1.9215356421874639
 11
-0.867898716281849
 21
-1.7443282870957744
  0
LINE
  8
0
 62
50
  6
CONTINUOUS
 10
-0.867898716281849
 20
-1.7443282870957744
 11
-0.79021153581481096
 21
-1.9109289832422174
  0
LINE
  8
0
 62
50
  6
CONTINUOUS
 10
-0.79021153581481096
 20
-1.9109289832422174
 11
-1.1702339351746138
 21
-2.0881363383363571
  0
LINE
  8
0
 62
50
  6
CONTINUOUS
 10
-1.5624999999999756
 20
-1.8382352941176121
 11
-1.5624999999968356
 21
-0.6433823529411643
  0
ARC
  8
0
 62
50
  6
CONTINUOUS
 10
-0.68933823529096983
 20
-1.5418198529398757
 40
0.2872242647058787
 50
36.869897645903166
 51
143.13010235484816
  0
ARC
  8
0
 62
50
  6
CONTINUOUS
 10
0.68933823529724192
 20
-1.5418198529398757
 40
0.2872242647058787
 50
36.869897645903166
 51
143.13010235484816
  0
ARC
  8
0
 62
50
  6
CONTINUOUS
 10
-1.1488970588203729
 20
-1.8382352941163427
 40
0.091911764705880611
 50
180.00000000079143
 51
226.47360770658048
  0
ARC
  8
0
 62
50
  6
CONTINUOUS
 10
1.1488970588266449
 20
-1.8382352941163427
 40
0.091911764705880611
 50
270
 51
359.99999999920857
  0
ARC
  8
0
 62
50
  6
CONTINUOUS
 10
1.2867647058854659
 20
-0.64338235293989465
 40
0.091911764705880611
 50
359.99999999920857
 51
90
  0
ARC
  8
0
 62
50
  6
CONTINUOUS
 10
1.2867647058854659
 20
-1.8382352941163427
 40
0.091911764705880611
 50
270
 51
359.99999999920857
  0
ARC
  8
0
 62
50
  6
CONTINUOUS
 10
-1.2867647058791938
 20
-0.6433823529411643
 40
0.091911764705880611
 50
90
 51
180
  0
ARC
  8
0
 62
50
  6
CONTINUOUS
 10
1.2867647058854659
 20
-1.8382352941163427
 40
0.27573529411764186
 50
270
 51
359.99999999973619
  0
ARC
  8
0
 62
50
  6
CONTINUOUS
 10
1.2867647058854659
 20
-0.64338235293989465
 40
0.27573529411764186
 50
359.99999999973619
 51
90
  0
ARC
  8
0
 62
50
  6
CONTINUOUS
 10
-1.2867647058791938
 20
-0.64338235293989465
 40
0.27573529411764186
 50
90
 51
180.00000000026381
  0
ARC
  8
0
 62
50
  6
CONTINUOUS
 10
-1.2867647058823313
 20
-1.8382352941126958
 40
0.091911764705880611
 50
179.99999999733586
 51
294.9999999974774
  0
ARC
  8
0
 62
50
  6
CONTINUOUS
 10
-1.2867647058791938
 20
-1.8382352941163427
 40
0.27573529411764186
 50
180.00000000026353
 51
295.00000000072612
  0
LINE
  8
0
 62
5
  6
DASHDOT
 10
-5.2245789394124023e-015
 20
-1.0798997225475788
 11
-5.2245789394124023e-015
 21
-2.7941176470574991
  0
POLYLINE
  8
0
 62
50
  6
CONTINUOUS
 66
1
 70
1
  0
VERTEX
  8
0
 62
50
  6
CONTINUOUS
 10
-4.595588235294036
 20
-0.36764705882352244
  0
VERTEX
  8
0
 62
50
  6
CONTINUOUS
 10
4.5955882352940254
 20
-0.36764705882352244
  0
VERTEX
  8
0
 62
50
  6
CONTINUOUS
 10
4.5955882352940254
 20
0
  0
VERTEX
  8
0
 62
50
  6
CONTINUOUS
 10
-4.595588235294036
 20
0
  0
SEQEND
  0
LINE
  8
0
 62
50
  6
CONTINUOUS
 10
-4.0652573529411047
 20
-0.36764705882352244
 11
-4.0652573529411047
 21
0
  0
LINE
  8
0
 62
50
  6
CONTINUOUS
 10
4.0652573529410958
 20
-0.36764705882352244
 11
4.0652573529410958
 21
0
  0
INSERT
  8
0
 62
140
  6
CONTINUOUS
  2
TELL_7
 10
-0.62953404407614144
 20
-0.18142335996118372
 41
1.0
 42
1.0
 50
0.0
  0
LINE
  8
0
 62
5
  6
DASHDOT
 10
-3.2169117647058267
 20
-0.55147058823528372
 11
-3.2169117647058267
 21
0.18382352941176122
  0
LINE
  8
0
 62
5
  6
DASHDOT
 10
3.2169117647058161
 20
-0.55147058823528372
 11
3.2169117647058161
 21
0.18382352941176122
  0
ENDBLK
  0
ENDSEC
  0
SECTION
  2
ENTITIES
  0
INSERT
  8
0
 62
140
  6
CONTINUOUS
  2
TELL_1
 10
1.4494288122664857e-011
 20
-11.341911764714938
 41
1.0
 42
1.0
 50
0.0
  0
INSERT
  8
0
 62
140
  6
CONTINUOUS
  2
TELL_4
 10
13.327205882367181
 20
-0.36764705883279086
 41
1.0
 42
1.0
 50
0.0
  0
INSERT
  8
0
 62
140
  6
CONTINUOUS
  2
7_30_PROFIL_C
 10
1.4494288122664857e-011
 20
-0.36764705883279086
 41
1.0
 42
1.0
 50
0.0
  0
ENDSEC
  0
EOF
