  0
SECTION
  2
HEADER
  9
$ACADVER
  1
AC1009
  9
$EXTMIN
 10
-5.2966101694915242
 20
-15.889830508474574
  9
$EXTMAX
 10
19.703389830508478
 20
5.9322033898305078
  9
$TEXTSTYLE
  7
STANDARD
  9
$DIMLFAC
 40
1
  9
$REGENMODE
 70
1
  9
$DRAGMODE
 70
2
  9
$DIMASO
 70
1
  9
$LTSCALE
 40
1.0000000000
  0
ENDSEC
  0
SECTION
  2
TABLES
  0
TABLE
  2
LTYPE
 70
2
  0
LTYPE
  2
CONTINUOUS
 70
64
  3
CONTINUOUS
 72
65
 73
0
 40
0.0000000000
  0
LTYPE
  2
DASHDOT
 70
64
  3
DASHDOT
 72
65
 73
4
 40
1.0000000000
 49
0.5000000000
 49
-0.2500000000
 49
0.0000000000
 49
-0.2500000000
  0
ENDTAB
  0
TABLE
  2
LAYER
 70
1
  0
LAYER
  2
0
 70
0
 62
2
  6
CONTINUOUS
  0
ENDTAB
  0
TABLE
  2
STYLE
 70
0
  0
STYLE
  2
Standard
 70
0
 40
0
 41
1
 50
0
 71
0
 42
2.5
  3
txt
  4

  0
ENDTAB
  0
ENDSEC
  0
SECTION
  2
BLOCKS
  0
BLOCK
  8
0
 62
50
  6
CONTINUOUS
  2
7_10_CS
 70
0
 10
0
 20
0
  0
LINE
  8
0
 62
50
  6
CONTINUOUS
 10
2.6483050847457621
 20
5.5084745762711851
 11
2.6483050847457621
 21
4.8728813559322024
  0
LINE
  8
0
 62
50
  6
CONTINUOUS
 10
-2.6483050847457621
 20
4.8728813559322024
 11
-2.6483050847457621
 21
5.5084745762711851
  0
LINE
  8
0
 62
50
  6
CONTINUOUS
 10
-2.6483050847457621
 20
5.5084745762711851
 11
2.6483050847457621
 21
5.5084745762711851
  0
LINE
  8
0
 62
50
  6
CONTINUOUS
 10
1.0593220338983049
 20
5.5084745762711851
 11
1.2052657303673862
 21
5.6507712185950529
  0
LINE
  8
0
 62
50
  6
CONTINUOUS
 10
1.8655425768603708
 20
5.5084745762711851
 11
1.8655425768603708
 21
4.8728813559322024
  0
LINE
  8
0
 62
50
  6
CONTINUOUS
 10
-1.8655425768603708
 20
4.8728813559322024
 11
-1.8655425768603708
 21
5.5084745762711851
  0
LINE
  8
0
 62
50
  6
CONTINUOUS
 10
-5.2966101694915242
 20
4.8728813559322024
 11
5.2966101694915242
 21
4.8728813559322024
  0
LINE
  8
0
 62
50
  6
CONTINUOUS
 10
5.2966101694915242
 20
4.8728813559322024
 11
5.2966101694915242
 21
0
  0
LINE
  8
0
 62
50
  6
CONTINUOUS
 10
5.2966101694915242
 20
0
 11
3.3898305084745757
 21
0
  0
LINE
  8
0
 62
50
  6
CONTINUOUS
 10
3.3898305084745757
 20
0
 11
3.3898305084745757
 21
2.7542372881355925
  0
LINE
  8
0
 62
50
  6
CONTINUOUS
 10
3.3898305084745757
 20
2.7542372881355925
 11
1.6949152542372878
 21
2.7542372881355925
  0
LINE
  8
0
 62
50
  6
CONTINUOUS
 10
1.6949152542372878
 20
2.7542372881355925
 11
1.6949152542372878
 21
-1.4830508474576269
  0
LINE
  8
0
 62
50
  6
CONTINUOUS
 10
1.6949152542372878
 20
-1.4830508474576269
 11
-1.6949152542372878
 21
-1.4830508474576269
  0
LINE
  8
0
 62
50
  6
CONTINUOUS
 10
-1.6949152542372878
 20
-1.4830508474576269
 11
-1.6949152542372878
 21
2.7542372881355925
  0
LINE
  8
0
 62
50
  6
CONTINUOUS
 10
-1.6949152542372878
 20
2.7542372881355925
 11
-3.3898305084745757
 21
2.7542372881355925
  0
LINE
  8
0
 62
50
  6
CONTINUOUS
 10
-3.3898305084745757
 20
2.7542372881355925
 11
-3.3898305084745757
 21
0
  0
LINE
  8
0
 62
50
  6
CONTINUOUS
 10
-3.3898305084745757
 20
0
 11
-5.2966101694915242
 21
0
  0
LINE
  8
0
 62
50
  6
CONTINUOUS
 10
-5.2966101694915242
 20
0
 11
-5.2966101694915242
 21
4.8728813559322024
  0
ARC
  8
0
 62
50
  6
CONTINUOUS
 10
-1.5889830508474514
 20
5.1112288135593209
 40
0.66207627118643719
 50
36.869897645844333
 51
143.13010235415629
  0
ARC
  8
0
 62
50
  6
CONTINUOUS
 10
1.5889830508474574
 20
5.1112288135593209
 40
0.66207627118644063
 50
36.86989764584402
 51
125.42006823610394
  0
LINE
  8
0
 62
5
  6
DASHDOT
 10
0
 20
-1.9067796610169487
 11
0
 21
5.9322033898305078
  0
ENDBLK
  0
BLOCK
  8
0
 62
50
  6
CONTINUOUS
  2
TELL_1
 70
0
 10
14.618644067796607
 20
0
  0
LINE
  8
0
 62
50
  6
CONTINUOUS
 10
19.703389830508478
 20
-1.4830508474576269
 11
19.703389830508478
 21
4.8728813559322024
  0
LINE
  8
0
 62
50
  6
CONTINUOUS
 10
19.70338983050847
 20
-1.4830508474576269
 11
9.5338983050847439
 21
-1.4830508474576269
  0
LINE
  8
0
 62
50
  6
CONTINUOUS
 10
12.81779661016949
 20
4.8728813559322024
 11
12.81779661016949
 21
5.5084745762711851
  0
LINE
  8
0
 62
50
  6
CONTINUOUS
 10
16.419491525423727
 20
5.5084745762711851
 11
16.419491525423727
 21
4.8728813559322024
  0
LINE
  8
0
 62
50
  6
CONTINUOUS
 10
12.81779661016949
 20
5.5084745762711851
 11
16.419491525423727
 21
5.5084745762711851
  0
LINE
  8
0
 62
50
  6
CONTINUOUS
 10
9.5338983050847439
 20
4.8728813559322024
 11
19.70338983050847
 21
4.8728813559322024
  0
LINE
  8
0
 62
50
  6
CONTINUOUS
 10
19.70338983050847
 20
0
 11
9.5338983050847439
 21
0
  0
LINE
  8
0
 62
50
  6
CONTINUOUS
 10
9.5338983050847439
 20
-1.4830508474576269
 11
9.5338983050847439
 21
4.8728813559322024
  0
ARC
  8
0
 62
50
  6
CONTINUOUS
 10
15.677966101694906
 20
5.1112288135592969
 40
0.66207627118646373
 50
36.869897645845377
 51
143.13010235415399
  0
ARC
  8
0
 62
50
  6
CONTINUOUS
 10
13.559322033898303
 20
5.1112288135592969
 40
0.66207627118646017
 50
36.869897645845697
 51
143.1301023541543
  0
LINE
  8
0
 62
5
  6
DASHDOT
 10
14.618644067796607
 20
-1.9067796610169487
 11
14.618644067796607
 21
5.9322033898305078
  0
ENDBLK
  0
BLOCK
  8
0
 62
50
  6
CONTINUOUS
  2
TELL_2
 70
0
 10
4.817238886509153e-014
 20
-10.805084745762679
  0
LINE
  8
0
 62
50
  6
CONTINUOUS
 10
2.4441533932579413
 20
-11.786890315795919
 11
2.196974308458389
 21
-12.226171332603869
  0
LINE
  8
0
 62
50
  6
CONTINUOUS
 10
2.196974308458389
 20
-12.226171332603869
 11
1.8655425768603799
 21
-12.605932203389822
  0
LINE
  8
0
 62
50
  6
CONTINUOUS
 10
5.2966101694915242
 20
-5.7203389830508407
 11
5.2966101694915366
 21
-15.889830508474567
  0
LINE
  8
0
 62
50
  6
CONTINUOUS
 10
5.2966101694915366
 20
-15.889830508474567
 11
-5.2966101694915153
 21
-15.889830508474574
  0
LINE
  8
0
 62
50
  6
CONTINUOUS
 10
-5.2966101694915153
 20
-15.889830508474574
 11
-5.2966101694915215
 21
-5.7203389830508469
  0
LINE
  8
0
 62
50
  6
CONTINUOUS
 10
-5.2966101694915215
 20
-5.7203389830508469
 11
5.2966101694915242
 21
-5.7203389830508407
  0
LINE
  8
0
 62
50
  6
CONTINUOUS
 10
-1.8655425768603648
 20
-9.0042372881355863
 11
1.8655425768603768
 21
-9.0042372881355863
  0
LINE
  8
0
 62
50
  6
CONTINUOUS
 10
1.8655425768603799
 20
-12.605932203389822
 11
-1.865542576860362
 21
-12.605932203389822
  0
ARC
  8
0
 62
50
  6
CONTINUOUS
 10
0.18538135593220337
 20
-10.805084745762704
 40
2.4629237288135655
 50
336.50717807638608
 51
46.985643847228289
  0
CIRCLE
  8
0
 62
50
  6
CONTINUOUS
 10
1.5889830508474874
 20
-9.7457627118643515
 40
0.52966101694910606
  0
CIRCLE
  8
0
 62
50
  6
CONTINUOUS
 10
4.817238886509153e-014
 20
-10.805084745762679
 40
0.84745762711860295
  0
CIRCLE
  8
0
 62
50
  6
CONTINUOUS
 10
1.5889830508474243
 20
-11.864406779660913
 40
0.52966101694904966
  0
CIRCLE
  8
0
 62
50
  6
CONTINUOUS
 10
-1.5889830508473579
 20
-11.864406779661033
 40
0.52966101694905565
  0
ARC
  8
0
 62
50
  6
CONTINUOUS
 10
-0.18538135593220337
 20
-10.805084745762704
 40
2.4629237288135517
 50
133.0143561527716
 51
226.9856438472284
  0
CIRCLE
  8
0
 62
50
  6
CONTINUOUS
 10
-1.5889830508474272
 20
-9.7457627118645433
 40
0.52966101694930356
  0
LINE
  8
0
 62
5
  6
DASHDOT
 10
-1.0169491525422758
 20
-10.805084745762679
 11
1.0169491525423722
 21
-10.805084745762679
  0
LINE
  8
0
 62
5
  6
DASHDOT
 10
4.817238886509153e-014
 20
-11.822033898305001
 11
4.817238886509153e-014
 21
-9.7881355932203586
  0
ENDBLK
  0
ENDSEC
  0
SECTION
  2
ENTITIES
  0
INSERT
  8
0
 62
50
  6
CONTINUOUS
  2
7_10_CS
 10
0
 20
0
 41
1.0
 42
1.0
 50
0.0
  0
INSERT
  8
0
 62
50
  6
CONTINUOUS
  2
TELL_1
 10
14.618644067796607
 20
0
 41
1.0
 42
1.0
 50
0.0
  0
INSERT
  8
0
 62
50
  6
CONTINUOUS
  2
TELL_2
 10
4.817238886509153e-014
 20
-10.805084745762679
 41
1.0
 42
1.0
 50
0.0
  0
ENDSEC
  0
EOF
