  0
SECTION
  2
HEADER
  9
$ACADVER
  1
AC1009
  9
$EXTMIN
 10
-4.9778761061946897
 20
-15.707964601769911
  9
$EXTMAX
 10
20.022123893805308
 20
3.7610619469026547
  9
$TEXTSTYLE
  7
STANDARD
  9
$DIMLFAC
 40
1
  9
$REGENMODE
 70
1
  9
$DRAGMODE
 70
2
  9
$DIMASO
 70
1
  9
$LTSCALE
 40
1.0000000000
  0
ENDSEC
  0
SECTION
  2
TABLES
  0
TABLE
  2
LTYPE
 70
2
  0
LTYPE
  2
CONTINUOUS
 70
64
  3
CONTINUOUS
 72
65
 73
0
 40
0.0000000000
  0
LTYPE
  2
DASHDOT
 70
64
  3
DASHDOT
 72
65
 73
4
 40
1.0000000000
 49
0.5000000000
 49
-0.2500000000
 49
0.0000000000
 49
-0.2500000000
  0
ENDTAB
  0
TABLE
  2
LAYER
 70
1
  0
LAYER
  2
0
 70
0
 62
2
  6
CONTINUOUS
  0
ENDTAB
  0
TABLE
  2
STYLE
 70
0
  0
STYLE
  2
Standard
 70
0
 40
0
 41
1
 50
0
 71
0
 42
2.5
  3
txt
  4

  0
ENDTAB
  0
ENDSEC
  0
SECTION
  2
BLOCKS
  0
BLOCK
  8
0
 62
50
  6
CONTINUOUS
  2
7_10_CR
 70
0
 10
0
 20
0
  0
LINE
  8
0
 62
50
  6
CONTINUOUS
 10
2.7654867256637168
 20
3.3185840707964598
 11
2.7654867256637168
 21
2.6548672566371678
  0
LINE
  8
0
 62
50
  6
CONTINUOUS
 10
-2.7654867256637168
 20
2.6548672566371678
 11
-2.7654867256637168
 21
3.3185840707964598
  0
LINE
  8
0
 62
50
  6
CONTINUOUS
 10
-2.7654867256637168
 20
3.3185840707964598
 11
2.7654867256637168
 21
3.3185840707964598
  0
LINE
  8
0
 62
50
  6
CONTINUOUS
 10
1.9480887085798628
 20
3.3185840707964598
 11
1.9480887085798628
 21
2.6548672566371678
  0
LINE
  8
0
 62
50
  6
CONTINUOUS
 10
-1.9480887085798502
 20
2.6548672566371678
 11
-1.9480887085798502
 21
3.3185840707964598
  0
LINE
  8
0
 62
50
  6
CONTINUOUS
 10
-4.9778761061946897
 20
2.6548672566371678
 11
4.9778761061946897
 21
2.6548672566371678
  0
LINE
  8
0
 62
50
  6
CONTINUOUS
 10
4.9778761061946897
 20
2.6548672566371678
 11
4.9778761061946897
 21
0
  0
LINE
  8
0
 62
50
  6
CONTINUOUS
 10
4.9778761061946897
 20
0
 11
2.7654867256637168
 21
0
  0
LINE
  8
0
 62
50
  6
CONTINUOUS
 10
2.7654867256637168
 20
0
 11
2.7654867256637168
 21
1.5486725663716814
  0
LINE
  8
0
 62
50
  6
CONTINUOUS
 10
2.7654867256637168
 20
1.5486725663716814
 11
1.8805309734513274
 21
1.5486725663716814
  0
LINE
  8
0
 62
50
  6
CONTINUOUS
 10
1.8805309734513274
 20
1.5486725663716814
 11
1.8805309734513274
 21
-0.66371681415929196
  0
LINE
  8
0
 62
50
  6
CONTINUOUS
 10
1.8805309734513274
 20
-0.66371681415929196
 11
-1.8805309734513274
 21
-0.66371681415929196
  0
LINE
  8
0
 62
50
  6
CONTINUOUS
 10
-1.8805309734513274
 20
-0.66371681415929196
 11
-1.8805309734513274
 21
1.5486725663716814
  0
LINE
  8
0
 62
50
  6
CONTINUOUS
 10
-1.8805309734513274
 20
1.5486725663716814
 11
-2.7654867256637168
 21
1.5486725663716814
  0
LINE
  8
0
 62
50
  6
CONTINUOUS
 10
-2.7654867256637168
 20
1.5486725663716814
 11
-2.7654867256637168
 21
0
  0
LINE
  8
0
 62
50
  6
CONTINUOUS
 10
-2.7654867256637168
 20
0
 11
-4.9778761061946897
 21
0
  0
LINE
  8
0
 62
50
  6
CONTINUOUS
 10
-4.9778761061946897
 20
0
 11
-4.9778761061946897
 21
2.6548672566371678
  0
ARC
  8
0
 62
50
  6
CONTINUOUS
 10
1.6592920353982299
 20
2.9037610619469025
 40
0.6913716814159292
 50
36.86989764584402
 51
143.13010235415598
  0
ARC
  8
0
 62
50
  6
CONTINUOUS
 10
-1.6592920353982237
 20
2.9037610619469025
 40
0.69137168141592231
 50
36.869897645843764
 51
143.13010235415655
  0
LINE
  8
0
 62
5
  6
DASHDOT
 10
0
 20
-1.1061946902654867
 11
0
 21
3.7610619469026547
  0
ENDBLK
  0
BLOCK
  8
0
 62
50
  6
CONTINUOUS
  2
TELL_1
 70
0
 10
14.712389380530972
 20
0
  0
LINE
  8
0
 62
50
  6
CONTINUOUS
 10
20.022123893805308
 20
-0.66371681415929196
 11
9.4026548672566364
 21
-0.66371681415929196
  0
LINE
  8
0
 62
50
  6
CONTINUOUS
 10
9.4026548672566364
 20
-0.66371681415929196
 11
9.4026548672566364
 21
2.6548672566371678
  0
LINE
  8
0
 62
50
  6
CONTINUOUS
 10
12.831858407079645
 20
2.6548672566371678
 11
12.831858407079645
 21
3.3185840707964598
  0
LINE
  8
0
 62
50
  6
CONTINUOUS
 10
16.592920353982301
 20
3.3185840707964598
 11
16.592920353982301
 21
2.6548672566371678
  0
LINE
  8
0
 62
50
  6
CONTINUOUS
 10
12.831858407079645
 20
3.3185840707964598
 11
16.592920353982301
 21
3.3185840707964598
  0
LINE
  8
0
 62
50
  6
CONTINUOUS
 10
9.4026548672566364
 20
2.6548672566371678
 11
20.022123893805308
 21
2.6548672566371678
  0
LINE
  8
0
 62
50
  6
CONTINUOUS
 10
20.022123893805308
 20
-0.66371681415929196
 11
20.022123893805308
 21
2.6548672566371678
  0
LINE
  8
0
 62
50
  6
CONTINUOUS
 10
20.022123893805308
 20
0
 11
9.4026548672566364
 21
0
  0
ARC
  8
0
 62
50
  6
CONTINUOUS
 10
15.81858407079646
 20
2.9037610619469025
 40
0.6913716814159292
 50
36.86989764584402
 51
143.13010235415598
  0
ARC
  8
0
 62
50
  6
CONTINUOUS
 10
13.606194690265486
 20
2.9037610619469025
 40
0.6913716814159292
 50
36.86989764584402
 51
143.13010235415598
  0
LINE
  8
0
 62
5
  6
DASHDOT
 10
14.712389380530972
 20
-1.1061946902654867
 11
14.712389380530972
 21
3.7610619469026547
  0
ENDBLK
  0
BLOCK
  8
0
 62
50
  6
CONTINUOUS
  2
TELL_2
 70
0
 10
1.5719972030090711e-014
 20
-10.398230088495568
  0
LINE
  8
0
 62
50
  6
CONTINUOUS
 10
4.9778761061946897
 20
-5.0884955752212324
 11
4.9778761061946977
 21
-15.707964601769904
  0
LINE
  8
0
 62
50
  6
CONTINUOUS
 10
4.9778761061946977
 20
-15.707964601769904
 11
-4.9778761061946835
 21
-15.707964601769911
  0
LINE
  8
0
 62
50
  6
CONTINUOUS
 10
-4.9778761061946835
 20
-15.707964601769911
 11
-4.9778761061946897
 21
-5.0884955752212386
  0
LINE
  8
0
 62
50
  6
CONTINUOUS
 10
-4.9778761061946897
 20
-5.0884955752212386
 11
4.9778761061946897
 21
-5.0884955752212324
  0
LINE
  8
0
 62
50
  6
CONTINUOUS
 10
-1.9480887085798471
 20
-8.5176991150442465
 11
1.9480887085798659
 21
-8.5176991150442412
  0
LINE
  8
0
 62
50
  6
CONTINUOUS
 10
1.9480887085798675
 20
-12.278761061946895
 11
-1.948088708579844
 21
-12.278761061946902
  0
LINE
  8
0
 62
50
  6
CONTINUOUS
 10
2.2941855610450452
 20
-11.882196612807606
 11
1.9480887085798675
 21
-12.278761061946895
  0
ARC
  8
0
 62
50
  6
CONTINUOUS
 10
0.19358407079645701
 20
-10.398230088495568
 40
2.5719026548672654
 50
324.76076711457881
 51
46.985643847228118
  0
CIRCLE
  8
0
 62
50
  6
CONTINUOUS
 10
1.6592920353981702
 20
-9.2920353982302064
 40
0.55309734513287478
  0
CIRCLE
  8
0
 62
50
  6
CONTINUOUS
 10
1.5719972030090711e-014
 20
-10.398230088495568
 40
0.88495575221237932
  0
CIRCLE
  8
0
 62
50
  6
CONTINUOUS
 10
1.6592920353982159
 20
-11.504424778760979
 40
0.55309734513266606
  0
CIRCLE
  8
0
 62
50
  6
CONTINUOUS
 10
-1.6592920353981293
 20
-11.504424778761081
 40
0.55309734513265052
  0
ARC
  8
0
 62
50
  6
CONTINUOUS
 10
-0.19358407079645074
 20
-10.398230088495581
 40
2.5719026548672597
 50
133.01435615277171
 51
226.98564384722818
  0
CIRCLE
  8
0
 62
50
  6
CONTINUOUS
 10
-1.6592920353981577
 20
-9.2920353982302135
 40
0.55309734513286779
  0
LINE
  8
0
 62
5
  6
DASHDOT
 10
-1.0619469026548398
 20
-10.398230088495568
 11
1.0619469026548713
 21
-10.398230088495568
  0
LINE
  8
0
 62
5
  6
DASHDOT
 10
1.5719972030090711e-014
 20
-11.460176991150425
 11
1.5719972030090711e-014
 21
-9.3362831858407116
  0
ENDBLK
  0
ENDSEC
  0
SECTION
  2
ENTITIES
  0
INSERT
  8
0
 62
50
  6
CONTINUOUS
  2
7_10_CR
 10
0
 20
0
 41
1.0
 42
1.0
 50
0.0
  0
INSERT
  8
0
 62
50
  6
CONTINUOUS
  2
TELL_1
 10
14.712389380530972
 20
0
 41
1.0
 42
1.0
 50
0.0
  0
INSERT
  8
0
 62
50
  6
CONTINUOUS
  2
TELL_2
 10
1.5719972030090711e-014
 20
-10.398230088495568
 41
1.0
 42
1.0
 50
0.0
  0
ENDSEC
  0
EOF
