  0
SECTION
  2
HEADER
  9
$ACADVER
  1
AC1009
  9
$EXTMIN
 10
-3.9772727272727266
 20
-17.89772727272727
  9
$EXTMAX
 10
21.02272727272727
 20
3.764204545454545
  9
$TEXTSTYLE
  7
STANDARD
  9
$DIMLFAC
 40
1
  9
$REGENMODE
 70
1
  9
$DRAGMODE
 70
2
  9
$DIMASO
 70
1
  9
$LTSCALE
 40
1.0000000000
  0
ENDSEC
  0
SECTION
  2
TABLES
  0
TABLE
  2
LTYPE
 70
2
  0
LTYPE
  2
CONTINUOUS
 70
64
  3
CONTINUOUS
 72
65
 73
0
 40
0.0000000000
  0
LTYPE
  2
DASHDOT
 70
64
  3
DASHDOT
 72
65
 73
4
 40
1.0000000000
 49
0.5000000000
 49
-0.2500000000
 49
0.0000000000
 49
-0.2500000000
  0
ENDTAB
  0
TABLE
  2
LAYER
 70
1
  0
LAYER
  2
0
 70
0
 62
2
  6
CONTINUOUS
  0
ENDTAB
  0
TABLE
  2
STYLE
 70
0
  0
STYLE
  2
Standard
 70
0
 40
0
 41
1
 50
0
 71
0
 42
2.5
  3
txt
  4

  0
ENDTAB
  0
ENDSEC
  0
SECTION
  2
BLOCKS
  0
BLOCK
  8
0
 62
5
  6
DASHDOT
  2
7_10_C
 70
0
 10
0
 20
0
  0
LINE
  8
0
 62
50
  6
CONTINUOUS
 10
-3.5511363636363633
 20
1.9886363636363633
 11
-3.5511363636363633
 21
2.8409090909090908
  0
LINE
  8
0
 62
50
  6
CONTINUOUS
 10
3.5511363636363633
 20
2.8409090909090908
 11
3.5511363636363633
 21
1.9886363636363633
  0
LINE
  8
0
 62
50
  6
CONTINUOUS
 10
-3.5511363636363633
 20
2.8409090909090908
 11
3.5511363636363633
 21
2.8409090909090908
  0
LINE
  8
0
 62
50
  6
CONTINUOUS
 10
2.5015230007900509
 20
2.8409090909090908
 11
2.5015230007900509
 21
1.9886363636363633
  0
LINE
  8
0
 62
50
  6
CONTINUOUS
 10
-2.5015230007900349
 20
1.9886363636363633
 11
-2.5015230007900349
 21
2.8409090909090908
  0
LINE
  8
0
 62
50
  6
CONTINUOUS
 10
-3.9772727272727266
 20
1.9886363636363633
 11
3.9772727272727266
 21
1.9886363636363633
  0
LINE
  8
0
 62
50
  6
CONTINUOUS
 10
3.9772727272727266
 20
1.9886363636363633
 11
3.9772727272727266
 21
0
  0
LINE
  8
0
 62
50
  6
CONTINUOUS
 10
3.9772727272727266
 20
0
 11
1.7045454545454544
 21
0
  0
LINE
  8
0
 62
50
  6
CONTINUOUS
 10
1.7045454545454544
 20
0
 11
1.7045454545454544
 21
-0.85227272727272718
  0
LINE
  8
0
 62
50
  6
CONTINUOUS
 10
1.7045454545454544
 20
-0.85227272727272718
 11
-1.7045454545454544
 21
-0.85227272727272718
  0
LINE
  8
0
 62
50
  6
CONTINUOUS
 10
-1.7045454545454544
 20
-0.85227272727272718
 11
-1.7045454545454544
 21
0
  0
LINE
  8
0
 62
50
  6
CONTINUOUS
 10
-1.7045454545454544
 20
0
 11
-3.9772727272727266
 21
0
  0
LINE
  8
0
 62
50
  6
CONTINUOUS
 10
-3.9772727272727266
 20
0
 11
-3.9772727272727266
 21
1.9886363636363633
  0
ARC
  8
0
 62
50
  6
CONTINUOUS
 10
-2.1306818181818179
 20
2.3082386363636362
 40
0.88778409090908905
 50
36.86989764584392
 51
143.13010235415607
  0
ARC
  8
0
 62
50
  6
CONTINUOUS
 10
2.1306818181818179
 20
2.3082386363636362
 40
0.88778409090908916
 50
36.86989764584392
 51
143.13010235415607
  0
LINE
  8
0
 62
5
  6
DASHDOT
 10
0
 20
-1.4204545454545454
 11
0
 21
3.764204545454545
  0
ENDBLK
  0
BLOCK
  8
0
 62
5
  6
DASHDOT
  2
TELL_1
 70
0
 10
15.340909090909097
 20
0
  0
LINE
  8
0
 62
50
  6
CONTINUOUS
 10
21.02272727272727
 20
-0.85227272727272718
 11
21.02272727272727
 21
1.9886363636363633
  0
LINE
  8
0
 62
50
  6
CONTINUOUS
 10
21.02272727272727
 20
-0.85227272727272718
 11
9.6590909090909083
 21
-0.85227272727272718
  0
LINE
  8
0
 62
50
  6
CONTINUOUS
 10
17.755681818181817
 20
2.8409090909090908
 11
12.926136363636362
 21
2.8409090909090908
  0
LINE
  8
0
 62
50
  6
CONTINUOUS
 10
12.926136363636362
 20
1.9886363636363633
 11
12.926136363636362
 21
2.8409090909090908
  0
LINE
  8
0
 62
50
  6
CONTINUOUS
 10
17.755681818181817
 20
2.8409090909090908
 11
17.755681818181817
 21
1.9886363636363633
  0
LINE
  8
0
 62
50
  6
CONTINUOUS
 10
9.6590909090909083
 20
1.9886363636363633
 11
21.02272727272727
 21
1.9886363636363633
  0
LINE
  8
0
 62
50
  6
CONTINUOUS
 10
21.02272727272727
 20
0
 11
9.6590909090909083
 21
0
  0
LINE
  8
0
 62
50
  6
CONTINUOUS
 10
9.6590909090909083
 20
-0.85227272727272718
 11
9.6590909090909083
 21
1.9886363636363633
  0
ARC
  8
0
 62
50
  6
CONTINUOUS
 10
13.920454545454543
 20
2.3082386363636362
 40
0.88778409090908905
 50
36.86989764584392
 51
143.13010235415607
  0
ARC
  8
0
 62
50
  6
CONTINUOUS
 10
16.761363636363633
 20
2.3082386363636362
 40
0.88778409090908905
 50
36.869897645843942
 51
143.13010235415607
  0
LINE
  8
0
 62
5
  6
DASHDOT
 10
15.340909090909097
 20
-1.4204545454545454
 11
15.340909090909097
 21
3.764204545454545
  0
ENDBLK
  0
BLOCK
  8
0
 62
5
  6
DASHDOT
  2
TELL_2
 70
0
 10
0
 20
-12.215909090909081
  0
LINE
  8
0
 62
50
  6
CONTINUOUS
 10
3.9772727272727266
 20
-6.5340909090909003
 11
3.9772727272727351
 21
-17.897727272727263
  0
LINE
  8
0
 62
50
  6
CONTINUOUS
 10
3.9772727272727351
 20
-17.897727272727263
 11
-3.9772727272727266
 21
-17.89772727272727
  0
LINE
  8
0
 62
50
  6
CONTINUOUS
 10
-3.9772727272727266
 20
-17.89772727272727
 11
-3.9772727272727266
 21
-6.5340909090909083
  0
LINE
  8
0
 62
50
  6
CONTINUOUS
 10
-3.9772727272727266
 20
-6.5340909090909083
 11
3.9772727272727266
 21
-6.5340909090909003
  0
LINE
  8
0
 62
50
  6
CONTINUOUS
 10
-2.5015230007900429
 20
-9.8011363636363633
 11
2.5015230007900429
 21
-9.8011363636363544
  0
LINE
  8
0
 62
50
  6
CONTINUOUS
 10
2.5015230007900429
 20
-14.630681818181808
 11
-2.5015230007900429
 21
-14.630681818181817
  0
ARC
  8
0
 62
50
  6
CONTINUOUS
 10
0.24857954545454541
 20
-12.215909090909081
 40
3.3025568181818179
 50
313.01435615277171
 51
46.985643847228289
  0
CIRCLE
  8
0
 62
50
  6
CONTINUOUS
 10
2.1306818181818179
 20
-10.795454545454536
 40
0.71022727272727315
  0
CIRCLE
  8
0
 62
50
  6
CONTINUOUS
 10
0
 20
-12.215909090909081
 40
1.1363636363636351
  0
CIRCLE
  8
0
 62
50
  6
CONTINUOUS
 10
2.1306818181818743
 20
-13.636363636363692
 40
0.71022727272735997
  0
CIRCLE
  8
0
 62
50
  6
CONTINUOUS
 10
-2.1306818181818179
 20
-13.636363636363635
 40
0.7102272727272706
  0
ARC
  8
0
 62
50
  6
CONTINUOUS
 10
-0.24857954545454541
 20
-12.215909090909081
 40
3.3025568181818188
 50
133.01435615277171
 51
226.98564384722818
  0
CIRCLE
  8
0
 62
50
  6
CONTINUOUS
 10
-2.1306818181818179
 20
-10.795454545454536
 40
0.71022727272726582
  0
LINE
  8
0
 62
5
  6
DASHDOT
 10
-1.3636363636363587
 20
-12.215909090909081
 11
1.3636363636363587
 21
-12.215909090909081
  0
LINE
  8
0
 62
5
  6
DASHDOT
 10
0
 20
-13.579545454545441
 11
0
 21
-10.852272727272723
  0
ENDBLK
  0
ENDSEC
  0
SECTION
  2
ENTITIES
  0
INSERT
  8
0
 62
5
  6
DASHDOT
  2
7_10_C
 10
0
 20
0
 41
1.0
 42
1.0
 50
0.0
  0
INSERT
  8
0
 62
5
  6
DASHDOT
  2
TELL_1
 10
15.340909090909097
 20
0
 41
1.0
 42
1.0
 50
0.0
  0
INSERT
  8
0
 62
5
  6
DASHDOT
  2
TELL_2
 10
0
 20
-12.215909090909081
 41
1.0
 42
1.0
 50
0.0
  0
ENDSEC
  0
EOF
