  0
SECTION
  2
HEADER
  9
$ACADVER
  1
AC1009
  9
$EXTMIN
 10
-20.66666666666417
 20
-7.4104000281666789
  9
$EXTMAX
 10
4.3333333333358315
 20
0.3456171021766416
  9
$TEXTSTYLE
  7
STANDARD
  9
$DIMLFAC
 40
1
  9
$REGENMODE
 70
1
  9
$DRAGMODE
 70
2
  9
$DIMASO
 70
1
  9
$LTSCALE
 40
1.0000000000
  0
ENDSEC
  0
SECTION
  2
TABLES
  0
TABLE
  2
LTYPE
 70
4
  0
LTYPE
  2
CONTINUOUS
 70
64
  3
CONTINUOUS
 72
65
 73
0
 40
0.0000000000
  0
LTYPE
  2
HIDDEN
 70
64
  3
HIDDEN
 72
65
 73
2
 40
0.5000000000
 49
0.2500000000
 49
-0.2500000000
  0
LTYPE
  2
DOT
 70
64
  3
DOT
 72
65
 73
2
 40
0.2500000000
 49
0.0000000000
 49
-0.2500000000
  0
LTYPE
  2
DASHDOT
 70
64
  3
DASHDOT
 72
65
 73
4
 40
1.0000000000
 49
0.5000000000
 49
-0.2500000000
 49
0.0000000000
 49
-0.2500000000
  0
ENDTAB
  0
TABLE
  2
LAYER
 70
1
  0
LAYER
  2
0
 70
0
 62
2
  6
CONTINUOUS
  0
ENDTAB
  0
TABLE
  2
STYLE
 70
0
  0
STYLE
  2
Standard
 70
0
 40
0
 41
1
 50
0
 71
0
 42
2.5
  3
txt
  4

  0
ENDTAB
  0
ENDSEC
  0
SECTION
  2
BLOCKS
  0
BLOCK
  8
0
 62
140
  6
CONTINUOUS
  2
TELL_2
 70
0
 10
-14.00000000000807
 20
-1.6000000000009222
  0
LINE
  8
0
 62
50
  6
CONTINUOUS
 10
-15.833333333328049
 20
-3.5043784924286743
 11
-15.833333333328049
 21
-2.6666666666682057
  0
LINE
  8
0
 62
5
  6
CONTINUOUS
 10
-15.833333333328049
 20
-2.6666666666682057
 11
-15.833333333328049
 21
-0.66666666666703767
  0
LINE
  8
0
 62
5
  6
CONTINUOUS
 10
-15.833333333328049
 20
-0.66666666666703767
 11
-12.166666666659269
 21
-0.66666666666703767
  0
LINE
  8
0
 62
5
  6
CONTINUOUS
 10
-12.166666666659269
 20
-0.66666666666703767
 11
-12.166666666659269
 21
-2.6666666666682057
  0
LINE
  8
0
 62
50
  6
CONTINUOUS
 10
-12.166666666659269
 20
-2.6666666666682057
 11
-12.166666666659269
 21
-3.5043784924286743
  0
LINE
  8
0
 62
50
  6
CONTINUOUS
 10
-12.766666666659615
 20
-6.0440395712161257
 11
-12.751228808196784
 21
-5.7960212122637511
  0
LINE
  8
0
 62
50
  6
CONTINUOUS
 10
-12.751228808196784
 20
-5.7960212122637511
 11
-12.705153560282223
 21
-5.5518317256330647
  0
LINE
  8
0
 62
50
  6
CONTINUOUS
 10
-12.705153560282223
 20
-5.5518317256330647
 11
-12.629152226072872
 21
-5.3152408740563848
  0
LINE
  8
0
 62
50
  6
CONTINUOUS
 10
-12.766666666659615
 20
-6.0440395712161257
 11
-12.766666666659615
 21
-7.2000000000041364
  0
LINE
  8
0
 62
50
  6
CONTINUOUS
 10
-15.233333333327703
 20
-7.2000000000041364
 11
-15.233333333327703
 21
-6.0440395712161257
  0
LINE
  8
0
 62
50
  6
CONTINUOUS
 10
-15.233333333327703
 20
-6.0440395712161257
 11
-15.248771191790535
 21
-5.7960212122637511
  0
LINE
  8
0
 62
50
  6
CONTINUOUS
 10
-15.370847773914448
 20
-5.3152408740563848
 11
-15.294846439705095
 21
-5.5518317256330647
  0
LINE
  8
0
 62
50
  6
CONTINUOUS
 10
-15.294846439705095
 20
-5.5518317256330647
 11
-15.248771191790535
 21
-5.7960212122637511
  0
LINE
  8
0
 62
50
  6
CONTINUOUS
 10
-15.370847773914448
 20
-5.3152408740563848
 11
-15.604142599013324
 21
-4.7190429876955449
  0
LINE
  8
0
 62
50
  6
CONTINUOUS
 10
-12.395857400973989
 20
-4.7190429876955449
 11
-12.629152226072872
 21
-5.3152408740563848
  0
LINE
  8
0
 62
5
  6
CONTINUOUS
 10
-12.184164399364464
 20
-0.66666666666703767
 11
-12.184164399364464
 21
-3.5043784924286743
  0
LINE
  8
0
 62
5
  6
CONTINUOUS
 10
-15.815835600622856
 20
-3.5043784924286743
 11
-15.815835600622856
 21
-0.66666666666703767
  0
LINE
  8
0
 62
50
  6
CONTINUOUS
 10
-15.233333333327703
 20
-7.2000000000041364
 11
-12.766666666659615
 21
-7.2000000000041364
  0
CIRCLE
  8
0
 62
5
  6
CONTINUOUS
 10
-13.99999999999366
 20
-1.6000000000009222
 40
0.41666666666692009
  0
POLYLINE
  8
0
 62
5
  6
CONTINUOUS
 66
1
  0
VERTEX
  8
0
 62
5
  6
CONTINUOUS
 10
-15.485918964628494
 20
-4.7190429876955449
  0
VERTEX
  8
0
 62
5
  6
CONTINUOUS
 10
-15.308420047545095
 20
-4.957500000002578
  0
VERTEX
  8
0
 62
5
  6
CONTINUOUS
 10
-15.087489469606332
 20
-5.190609223387586
  0
VERTEX
  8
0
 62
5
  6
CONTINUOUS
 10
-14.934791375533257
 20
-5.3152408740563848
  0
VERTEX
  8
0
 62
5
  6
CONTINUOUS
 10
-14.869127669115585
 20
-5.373531946772883
  0
VERTEX
  8
0
 62
5
  6
CONTINUOUS
 10
-14.653255838642881
 20
-5.5155180408370637
  0
VERTEX
  8
0
 62
5
  6
CONTINUOUS
 10
-14.57327762663928
 20
-5.5518317256330647
  0
VERTEX
  8
0
 62
5
  6
CONTINUOUS
 10
-14.438253071588875
 20
-5.6232739539118572
  0
VERTEX
  8
0
 62
5
  6
CONTINUOUS
 10
-14.220303771688958
 20
-5.6905146126775756
  0
VERTEX
  8
0
 62
5
  6
CONTINUOUS
 10
-13.99999999999366
 20
-5.7128587974936922
  0
VERTEX
  8
0
 62
5
  6
CONTINUOUS
 10
-13.779696228298361
 20
-5.6905146126775756
  0
VERTEX
  8
0
 62
5
  6
CONTINUOUS
 10
-13.561746928398438
 20
-5.6232739539118555
  0
VERTEX
  8
0
 62
5
  6
CONTINUOUS
 10
-13.426722373348031
 20
-5.5518317256330647
  0
VERTEX
  8
0
 62
5
  6
CONTINUOUS
 10
-13.346744161344439
 20
-5.515518040837061
  0
VERTEX
  8
0
 62
5
  6
CONTINUOUS
 10
-13.130872330871734
 20
-5.373531946772883
  0
VERTEX
  8
0
 62
5
  6
CONTINUOUS
 10
-13.065208624454062
 20
-5.3152408740563848
  0
VERTEX
  8
0
 62
5
  6
CONTINUOUS
 10
-12.912510530380986
 20
-5.1906092233875842
  0
VERTEX
  8
0
 62
5
  6
CONTINUOUS
 10
-12.691579952442225
 20
-4.9575000000025744
  0
VERTEX
  8
0
 62
5
  6
CONTINUOUS
 10
-12.514081035358826
 20
-4.7190429876955449
  0
SEQEND
  8
0
  0
LINE
  8
0
 62
5
  6
CONTINUOUS
 10
-15.815835600622856
 20
-3.5043784924286743
 11
-15.801354447912091
 21
-3.814751355749419
  0
LINE
  8
0
 62
5
  6
CONTINUOUS
 10
-15.801354447912091
 20
-3.814751355749419
 11
-15.758036812050108
 21
-4.1224274849748381
  0
LINE
  8
0
 62
5
  6
CONTINUOUS
 10
-15.758036812050108
 20
-4.1224274849748381
 11
-15.755447392823081
 21
-4.1333333333357025
  0
LINE
  8
0
 62
5
  6
CONTINUOUS
 10
-15.755447392823081
 20
-4.1333333333357025
 11
-15.710740802837423
 21
-4.2841684618790756
  0
LINE
  8
0
 62
5
  6
CONTINUOUS
 10
-15.710740802837423
 20
-4.2841684618790756
 11
-15.650937537258679
 21
-4.4247335770939511
  0
LINE
  8
0
 62
5
  6
CONTINUOUS
 10
-15.650937537258679
 20
-4.4247335770939511
 11
-15.525955761066609
 21
-4.6607047490945241
  0
LINE
  8
0
 62
5
  6
CONTINUOUS
 10
-15.525955761066609
 20
-4.6607047490945241
 11
-15.485918964628494
 21
-4.7190429876955449
  0
LINE
  8
0
 62
50
  6
CONTINUOUS
 10
-15.604142599013324
 20
-4.7190429876955449
 11
-15.703756799322074
 21
-4.4247335770939511
  0
LINE
  8
0
 62
50
  6
CONTINUOUS
 10
-15.703756799322074
 20
-4.4247335770939511
 11
-15.775534544755301
 21
-4.1224274849748381
  0
LINE
  8
0
 62
50
  6
CONTINUOUS
 10
-15.775534544755301
 20
-4.1224274849748381
 11
-15.818852180617286
 21
-3.814751355749419
  0
LINE
  8
0
 62
50
  6
CONTINUOUS
 10
-15.818852180617286
 20
-3.814751355749419
 11
-15.833333333328049
 21
-3.5043784924286743
  0
LINE
  8
0
 62
50
  6
CONTINUOUS
 10
-12.166666666659269
 20
-3.5043784924286743
 11
-12.181147819370032
 21
-3.814751355749419
  0
LINE
  8
0
 62
50
  6
CONTINUOUS
 10
-12.181147819370032
 20
-3.814751355749419
 11
-12.224465455232018
 21
-4.1224274849748381
  0
LINE
  8
0
 62
50
  6
CONTINUOUS
 10
-12.224465455232018
 20
-4.1224274849748381
 11
-12.296243200665245
 21
-4.4247335770939511
  0
LINE
  8
0
 62
50
  6
CONTINUOUS
 10
-12.296243200665245
 20
-4.4247335770939511
 11
-12.395857400973989
 21
-4.7190429876955449
  0
LINE
  8
0
 62
5
  6
CONTINUOUS
 10
-12.514081035358826
 20
-4.7190429876955449
 11
-12.47404423892071
 21
-4.6607047490945206
  0
LINE
  8
0
 62
5
  6
CONTINUOUS
 10
-12.47404423892071
 20
-4.6607047490945206
 11
-12.349062462728639
 21
-4.4247335770939511
  0
LINE
  8
0
 62
5
  6
CONTINUOUS
 10
-12.349062462728639
 20
-4.4247335770939511
 11
-12.289259197149896
 21
-4.2841684618790739
  0
LINE
  8
0
 62
5
  6
CONTINUOUS
 10
-12.289259197149896
 20
-4.2841684618790739
 11
-12.244552607164238
 21
-4.1333333333357025
  0
LINE
  8
0
 62
5
  6
CONTINUOUS
 10
-12.244552607164238
 20
-4.1333333333357025
 11
-12.241963187937213
 21
-4.1224274849748381
  0
LINE
  8
0
 62
5
  6
CONTINUOUS
 10
-12.241963187937213
 20
-4.1224274849748381
 11
-12.198645552075227
 21
-3.814751355749419
  0
LINE
  8
0
 62
5
  6
CONTINUOUS
 10
-12.198645552075227
 20
-3.814751355749419
 11
-12.184164399364464
 21
-3.5043784924286743
  0
ENDBLK
  0
BLOCK
  8
0
 62
140
  6
HIDDEN
  2
TELL_1
 70
0
 10
-14.00000000000807
 20
0
  0
LINE
  8
0
 62
50
  6
CONTINUOUS
 10
-7.3333333333231545
 20
-2.6666666666682057
 11
-7.3333333333231545
 21
-0.33333333333352544
  0
LINE
  8
0
 62
50
  6
CONTINUOUS
 10
-7.3333333333231545
 20
-0.33333333333352544
 11
-20.66666666666417
 21
-0.33333333333352544
  0
LINE
  8
0
 62
50
  6
CONTINUOUS
 10
-20.66666666666417
 20
-0.33333333333352544
 11
-20.66666666666417
 21
-2.6666666666682057
  0
LINE
  8
0
 62
50
  6
CONTINUOUS
 10
-20.66666666666417
 20
-2.6666666666682057
 11
-7.3333333333231545
 21
-2.6666666666682057
  0
CIRCLE
  8
0
 62
5
  6
HIDDEN
 10
-13.999999999993662
 20
-1.6000000000009222
 40
0.93333333333387136
  0
LINE
  8
0
 62
5
  6
DASHDOT
 10
-15.119999999994308
 20
-1.6000000000009222
 11
-12.879999999993016
 21
-1.6000000000009222
  0
LINE
  8
0
 62
5
  6
DASHDOT
 10
-13.99999999999366
 20
-7.4104000281666789
 11
-13.999999999993662
 21
0.3456171021766416
  0
LINE
  8
0
 62
5
  6
HIDDEN
 10
-20.66666666666417
 20
-0.46666666666693385
 11
-7.3333333333231545
 21
-0.46666666666693385
  0
LINE
  8
0
 62
5
  6
HIDDEN
 10
-20.66666666666417
 20
-2.5333333333347916
 11
-7.3333333333231545
 21
-2.5333333333347916
  0
LINE
  8
0
 62
50
  6
CONTINUOUS
 10
-15.999999999994815
 20
-0.33333333333352544
 11
-15.999999999994815
 21
0
  0
LINE
  8
0
 62
50
  6
CONTINUOUS
 10
-15.999999999994815
 20
0
 11
-11.999999999992509
 21
0
  0
LINE
  8
0
 62
50
  6
CONTINUOUS
 10
-11.999999999992509
 20
0
 11
-11.999999999992509
 21
-0.33333333333352544
  0
LINE
  8
0
 62
50
  6
CONTINUOUS
 10
-15.333333333327763
 20
-0.33333333333352544
 11
-15.333333333327763
 21
0
  0
LINE
  8
0
 62
50
  6
CONTINUOUS
 10
-12.666666666659561
 20
-0.33333333333352544
 11
-12.666666666659561
 21
0
  0
CIRCLE
  8
0
 62
50
  6
CONTINUOUS
 10
-9.7999999999912415
 20
-1.6000000000009222
 40
0.43333333333358309
  0
LINE
  8
0
 62
5
  6
DASHDOT
 10
-10.319999999991541
 20
-1.6000000000009222
 11
-9.2799999999909399
 21
-1.6000000000009222
  0
LINE
  8
0
 62
5
  6
DASHDOT
 10
-9.7999999999912415
 20
-2.1200000000012218
 11
-9.7999999999912415
 21
-1.0800000000006225
  0
INSERT
  8
0
 62
140
  6
CONTINUOUS
  2
TELL_2
 10
-14.00000000000807
 20
-1.6000000000009222
 41
1.0
 42
1.0
 50
0.0
  0
ENDBLK
  0
BLOCK
  8
0
 62
140
  6
CONTINUOUS
  2
TELL_3
 70
0
 10
1.2000000000006901
 20
-0.50000000000027611
  0
LINE
  8
0
 62
110
  6
CONTINUOUS
 10
1.5000000000008613
 20
-0.33333333333352544
 11
1.166666666667354
 21
-0.66666666666703267
  0
LINE
  8
0
 62
110
  6
CONTINUOUS
 10
1.166666666667354
 20
-0.66666666666703267
 11
1.1666666666673391
 21
-0.60000000000034581
  0
ARC
  8
0
 62
110
  6
CONTINUOUS
 10
0.90000000000052094
 20
-0.60000000000033993
 40
0.26666666666682037
 50
359.99999999999875
 51
90
  0
LINE
  8
0
 62
110
  6
CONTINUOUS
 10
0.90000000000051872
 20
-0.33333333333352544
 11
1.5000000000008613
 21
-0.33333333333352544
  0
ENDBLK
  0
BLOCK
  8
0
 62
140
  6
CONTINUOUS
  2
TELL_4
 70
0
 10
-1.2000000000006896
 20
-0.5000000000002881
  0
LINE
  8
0
 62
110
  6
CONTINUOUS
 10
-1.5000000000008624
 20
-0.33333333333352544
 11
-1.1666666666673371
 21
-0.66666666666705066
  0
LINE
  8
0
 62
110
  6
CONTINUOUS
 10
-1.1666666666673371
 20
-0.66666666666705066
 11
-1.1666666666673391
 21
-0.60000000000034581
  0
ARC
  8
0
 62
110
  6
CONTINUOUS
 10
-0.90000000000051661
 20
-0.60000000000035247
 40
0.26666666666682037
 50
90
 51
179.99999999999858
  0
LINE
  8
0
 62
110
  6
CONTINUOUS
 10
-0.90000000000051872
 20
-0.33333333333352544
 11
-1.5000000000008624
 21
-0.33333333333352544
  0
ENDBLK
  0
BLOCK
  8
0
 62
5
  6
CONTINUOUS
  2
TELL_6
 70
0
 10
-0.62281419340595734
 20
-0.40057419734820049
  0
LINE
  8
0
 62
5
  6
CONTINUOUS
 10
-1.1487972736358643
 20
-0.50402563810348511
 11
-0.99597436189651489
 21
-0.35120284557342529
  0
LINE
  8
0
 62
5
  6
CONTINUOUS
 10
-0.88382399082183838
 20
-0.3333333432674408
 11
-1.1666666269302368
 21
-0.61617600917816162
  0
LINE
  8
0
 62
5
  6
CONTINUOUS
 10
-1.1666666269302368
 20
-0.7104569673538208
 11
-1.0309113264083862
 21
-0.57470154762268066
  0
LINE
  8
0
 62
5
  6
CONTINUOUS
 10
-0.92529845237731934
 20
-0.46908867359161377
 11
-0.7895430326461792
 21
-0.3333333432674408
  0
LINE
  8
0
 62
5
  6
CONTINUOUS
 10
-0.69526213407516479
 20
-0.3333333432674408
 11
-0.82859545946121216
 21
-0.46666666865348816
  0
LINE
  8
0
 62
5
  6
CONTINUOUS
 10
-1.0333333015441895
 20
-0.67140454053878784
 11
-1.1666666269302368
 21
-0.80473786592483521
  0
LINE
  8
0
 62
5
  6
CONTINUOUS
 10
-1.1666666269302368
 20
-0.89901870489120483
 11
-1.0333333015441895
 21
-0.76568537950515747
  0
LINE
  8
0
 62
5
  6
CONTINUOUS
 10
-0.73431462049484253
 20
-0.46666666865348816
 11
-0.60098129510879517
 21
-0.3333333432674408
  0
LINE
  8
0
 62
5
  6
CONTINUOUS
 10
-0.50670033693313599
 20
-0.3333333432674408
 11
-0.64003366231918335
 21
-0.46666666865348816
  0
LINE
  8
0
 62
5
  6
CONTINUOUS
 10
-1.0333333015441895
 20
-0.85996633768081665
 11
-1.1666666269302368
 21
-0.99329966306686401
  0
LINE
  8
0
 62
5
  6
CONTINUOUS
 10
-1.1666666269302368
 20
-1.0875805616378784
 11
-1.0333333015441895
 21
-0.95424723625183105
  0
LINE
  8
0
 62
5
  6
CONTINUOUS
 10
-0.54575276374816895
 20
-0.46666666865348816
 11
-0.43333333730697632
 21
-0.35424721240997314
  0
LINE
  8
0
 62
5
  6
CONTINUOUS
 10
-0.43333333730697632
 20
-0.44852814078330994
 11
-0.45147186517715454
 21
-0.46666666865348816
  0
LINE
  8
0
 62
5
  6
CONTINUOUS
 10
-1.0333333015441895
 20
-1.0485281944274902
 11
-1.1666666269302368
 21
-1.1818615198135376
  0
LINE
  8
0
 62
5
  6
CONTINUOUS
 10
-1.1666666269302368
 20
-1.2761423587799072
 11
-1.0333333015441895
 21
-1.1428090333938599
  0
LINE
  8
0
 62
5
  6
CONTINUOUS
 10
-1.0333333015441895
 20
-1.2370898723602295
 11
-1.1666666269302368
 21
-1.3704231977462769
  0
LINE
  8
0
 62
5
  6
CONTINUOUS
 10
-1.1666666269302368
 20
-1.464704155921936
 11
-1.0333333015441895
 21
-1.3313708305358887
  0
LINE
  8
0
 62
5
  6
CONTINUOUS
 10
-1.0333333015441895
 20
-1.4256517887115479
 11
-1.1666666269302368
 21
-1.5589851140975952
  0
LINE
  8
0
 62
5
  6
CONTINUOUS
 10
-1.1666666269302368
 20
-1.6532660722732544
 11
-1.0333333015441895
 21
-1.5199326276779175
  0
LINE
  8
0
 62
5
  6
CONTINUOUS
 10
-1.0333333015441895
 20
-1.6142135858535767
 11
-1.1666666269302368
 21
-1.747546911239624
  0
LINE
  8
0
 62
5
  6
CONTINUOUS
 10
-1.1666666269302368
 20
-1.8418277502059937
 11
-1.0333333015441895
 21
-1.7084944248199463
  0
LINE
  8
0
 62
5
  6
CONTINUOUS
 10
-1.0333333015441895
 20
-1.8027752637863159
 11
-1.1666666269302368
 21
-1.9361087083816528
  0
LINE
  8
0
 62
5
  6
CONTINUOUS
 10
-1.1666666269302368
 20
-2.0303895473480225
 11
-1.0333333015441895
 21
-1.8970563411712646
  0
LINE
  8
0
 62
5
  6
CONTINUOUS
 10
-1.0333333015441895
 20
-1.9913371801376343
 11
-1.1666666269302368
 21
-2.1246705055236816
  0
LINE
  8
0
 62
5
  6
CONTINUOUS
 10
-1.1666666269302368
 20
-2.2189514636993408
 11
-1.0333333015441895
 21
-2.0856180191040039
  0
LINE
  8
0
 62
5
  6
CONTINUOUS
 10
-1.0333333015441895
 20
-2.1798989772796631
 11
-1.1666666269302368
 21
-2.313232421875
  0
LINE
  8
0
 62
5
  6
CONTINUOUS
 10
-1.1665636301040649
 20
-2.4074101448059082
 11
-1.0333333015441895
 21
-2.2741799354553223
  0
LINE
  8
0
 62
5
  6
CONTINUOUS
 10
-1.0333333015441895
 20
-2.3684608936309814
 11
-1.1520234346389771
 21
-2.4871509075164795
  0
LINE
  8
0
 62
5
  6
CONTINUOUS
 10
-1.1205247640609741
 20
-2.5499331951141357
 11
-1.0227205753326416
 21
-2.4521291255950928
  0
LINE
  8
0
 62
5
  6
CONTINUOUS
 10
-0.98168927431106567
 20
-2.5053784847259521
 11
-1.0763448476791382
 21
-2.6000339984893799
  0
LINE
  8
0
 62
5
  6
CONTINUOUS
 10
-1.020113468170166
 20
-2.6380836963653564
 11
-0.91456520557403564
 21
-2.5325353145599365
  0
LINE
  8
0
 62
5
  6
CONTINUOUS
 10
-0.82108223438262939
 20
-2.5333333015441895
 11
-0.94973635673522949
 21
-2.6619873046875
  0
LINE
  8
0
 62
5
  6
CONTINUOUS
 10
-0.86013472080230713
 20
-2.6666667461395264
 11
-0.72680133581161499
 21
-2.5333333015441895
  0
LINE
  8
0
 62
5
  6
CONTINUOUS
 10
-0.63252043724060059
 20
-2.5333333015441895
 11
-0.76585376262664795
 21
-2.6666667461395264
  0
LINE
  8
0
 62
5
  6
CONTINUOUS
 10
-0.67157286405563354
 20
-2.6666667461395264
 11
-0.53823953866958618
 21
-2.5333333015441895
  0
LINE
  8
0
 62
5
  6
CONTINUOUS
 10
-0.44395864009857178
 20
-2.5333333015441895
 11
-0.57729202508926392
 21
-2.6666667461395264
  0
LINE
  8
0
 62
5
  6
CONTINUOUS
 10
-0.48301106691360474
 20
-2.6666667461395264
 11
-0.42666667699813843
 21
-2.6103222370147705
  0
ENDBLK
  0
BLOCK
  8
0
 62
5
  6
CONTINUOUS
  2
TELL_7
 70
0
 10
0.59066110728882615
 20
-0.39503321423997684
  0
LINE
  8
0
 62
5
  6
CONTINUOUS
 10
0.43333333730697632
 20
-0.42094758152961731
 11
0.52094757556915283
 21
-0.3333333432674408
  0
LINE
  8
0
 62
5
  6
CONTINUOUS
 10
0.61522847414016724
 20
-0.3333333432674408
 11
0.48189511895179749
 21
-0.46666666865348816
  0
LINE
  8
0
 62
5
  6
CONTINUOUS
 10
0.57617604732513428
 20
-0.46666666865348816
 11
0.70950943231582642
 21
-0.3333333432674408
  0
LINE
  8
0
 62
5
  6
CONTINUOUS
 10
0.80379027128219604
 20
-0.3333333432674408
 11
0.67045694589614868
 21
-0.46666666865348816
  0
LINE
  8
0
 62
5
  6
CONTINUOUS
 10
0.76473784446716309
 20
-0.46666666865348816
 11
0.89807116985321045
 21
-0.3333333432674408
  0
LINE
  8
0
 62
5
  6
CONTINUOUS
 10
0.980052649974823
 20
-0.34563276171684265
 11
0.85901874303817749
 21
-0.46666666865348816
  0
LINE
  8
0
 62
5
  6
CONTINUOUS
 10
0.9453502893447876
 20
-0.47461605072021484
 11
1.0442498922348022
 21
-0.37571650743484497
  0
LINE
  8
0
 62
5
  6
CONTINUOUS
 10
1.0955507755279541
 20
-0.41869640350341797
 11
1.001134991645813
 21
-0.51311218738555908
  0
LINE
  8
0
 62
5
  6
CONTINUOUS
 10
1.0313633680343628
 20
-0.57716476917266846
 11
1.1348491907119751
 21
-0.47367900609970093
  0
LINE
  8
0
 62
5
  6
CONTINUOUS
 10
1.1603783369064331
 20
-0.54243069887161255
 11
1.0333333015441895
 21
-0.66947567462921143
  0
LINE
  8
0
 62
5
  6
CONTINUOUS
 10
1.0333333015441895
 20
-0.76375663280487061
 11
1.1666666269302368
 21
-0.63042330741882324
  0
LINE
  8
0
 62
5
  6
CONTINUOUS
 10
1.1666666269302368
 20
-0.72470414638519287
 11
1.0333333015441895
 21
-0.85803753137588501
  0
LINE
  8
0
 62
5
  6
CONTINUOUS
 10
1.0333333015441895
 20
-0.95231842994689941
 11
1.1666666269302368
 21
-0.81898510456085205
  0
LINE
  8
0
 62
5
  6
CONTINUOUS
 10
1.1666666269302368
 20
-0.91326600313186646
 11
1.0333333015441895
 21
-1.046599268913269
  0
LINE
  8
0
 62
5
  6
CONTINUOUS
 10
1.0333333015441895
 20
-1.1408802270889282
 11
1.1666666269302368
 21
-1.0075469017028809
  0
LINE
  8
0
 62
5
  6
CONTINUOUS
 10
1.1666666269302368
 20
-1.1018277406692505
 11
1.0333333015441895
 21
-1.2351610660552979
  0
LINE
  8
0
 62
5
  6
CONTINUOUS
 10
1.0333333015441895
 20
-1.3294421434402466
 11
1.1666666269302368
 21
-1.1961086988449097
  0
LINE
  8
0
 62
5
  6
CONTINUOUS
 10
1.1666666269302368
 20
-1.2903896570205688
 11
1.0333333015441895
 21
-1.4237229824066162
  0
LINE
  8
0
 62
5
  6
CONTINUOUS
 10
1.0333333015441895
 20
-1.5180038213729858
 11
1.1666666269302368
 21
-1.3846704959869385
  0
LINE
  8
0
 62
5
  6
CONTINUOUS
 10
1.1666666269302368
 20
-1.4789513349533081
 11
1.0333333015441895
 21
-1.612284779548645
  0
LINE
  8
0
 62
5
  6
CONTINUOUS
 10
1.0333333015441895
 20
-1.7065656185150146
 11
1.1666666269302368
 21
-1.5732322931289673
  0
LINE
  8
0
 62
5
  6
CONTINUOUS
 10
1.1666666269302368
 20
-1.6675132513046265
 11
1.0333333015441895
 21
-1.8008465766906738
  0
LINE
  8
0
 62
5
  6
CONTINUOUS
 10
1.0333333015441895
 20
-1.895127534866333
 11
1.1666666269302368
 21
-1.7617942094802856
  0
LINE
  8
0
 62
5
  6
CONTINUOUS
 10
1.1666666269302368
 20
-1.8560750484466553
 11
1.0333333015441895
 21
-1.9894083738327026
  0
LINE
  8
0
 62
5
  6
CONTINUOUS
 10
0.48940837383270264
 20
-2.5333333015441895
 11
0.42666667699813843
 21
-2.5960748195648193
  0
LINE
  8
0
 62
5
  6
CONTINUOUS
 10
0.45035594701766968
 20
-2.6666667461395264
 11
0.58368927240371704
 21
-2.5333333015441895
  0
LINE
  8
0
 62
5
  6
CONTINUOUS
 10
1.0333333015441895
 20
-2.0836892127990723
 11
1.1666666269302368
 21
-1.9503558874130249
  0
LINE
  8
0
 62
5
  6
CONTINUOUS
 10
1.1666666269302368
 20
-2.0446367263793945
 11
1.0333333015441895
 21
-2.1779701709747314
  0
LINE
  8
0
 62
5
  6
CONTINUOUS
 10
0.67797017097473145
 20
-2.5333333015441895
 11
0.54463684558868408
 21
-2.6666667461395264
  0
LINE
  8
0
 62
5
  6
CONTINUOUS
 10
0.63891774415969849
 20
-2.6666667461395264
 11
0.77225106954574585
 21
-2.5333333015441895
  0
LINE
  8
0
 62
5
  6
CONTINUOUS
 10
1.0333333015441895
 20
-2.2722511291503906
 11
1.1666666269302368
 21
-2.1389176845550537
  0
LINE
  8
0
 62
5
  6
CONTINUOUS
 10
1.1666666269302368
 20
-2.2331986427307129
 11
1.0333333015441895
 21
-2.3665318489074707
  0
LINE
  8
0
 62
5
  6
CONTINUOUS
 10
0.86653202772140503
 20
-2.5333333015441895
 11
0.73319870233535767
 21
-2.6666667461395264
  0
LINE
  8
0
 62
5
  6
CONTINUOUS
 10
0.82747954130172729
 20
-2.6666667461395264
 11
1.1666666269302368
 21
-2.3274796009063721
  0
LINE
  8
0
 62
5
  6
CONTINUOUS
 10
1.1656960248947144
 20
-2.4227309226989746
 11
0.92273104190826416
 21
-2.6656961441040039
  0
ENDBLK
  0
BLOCK
  8
0
 62
50
  6
CONTINUOUS
  2
TELL_5
 70
0
 10
-2.0516973760878491e-089
 20
-0.33333333333352544
  0
ARC
  8
0
 62
50
  6
CONTINUOUS
 10
0.90000000000056646
 20
-2.400000000001361
 40
0.26666666666682037
 50
270
 51
0
  0
LINE
  8
0
 62
50
  6
CONTINUOUS
 10
1.1666666666673906
 20
-2.4000000000013539
 11
1.1666666666673464
 21
-0.60000000000031828
  0
ARC
  8
0
 62
50
  6
CONTINUOUS
 10
0.90000000000052616
 20
-0.60000000000032427
 40
0.26666666666682037
 50
0
 51
90
  0
LINE
  8
0
 62
50
  6
CONTINUOUS
 10
0.90000000000051872
 20
-0.33333333333350379
 11
0.43333333333358309
 21
-0.33333333333351445
  0
LINE
  8
0
 62
50
  6
CONTINUOUS
 10
0.43333333333358309
 20
-0.33333333333351445
 11
0.43333333333358676
 21
-0.46666666666692541
  0
LINE
  8
0
 62
50
  6
CONTINUOUS
 10
0.43333333333358676
 20
-0.46666666666692541
 11
0.90000000000052238
 21
-0.46666666666691398
  0
ARC
  8
0
 62
50
  6
CONTINUOUS
 10
0.90000000000052616
 20
-0.60000000000032427
 40
0.13333333333341019
 50
0
 51
90
  0
LINE
  8
0
 62
50
  6
CONTINUOUS
 10
1.0333333333339363
 20
-0.60000000000032028
 11
1.0333333333339767
 21
-2.400000000001361
  0
ARC
  8
0
 62
50
  6
CONTINUOUS
 10
0.90000000000056646
 20
-2.400000000001361
 40
0.13333333333341019
 50
270
 51
0
  0
LINE
  8
0
 62
50
  6
CONTINUOUS
 10
0.90000000000057012
 20
-2.5333333333347792
 11
0.20000000000196294
 21
-2.5333333333347832
  0
LINE
  8
0
 62
50
  6
CONTINUOUS
 10
-0.19999999999826762
 20
-2.5333333333347925
 11
-0.90000000000046732
 21
-2.5333333333348076
  0
ARC
  8
0
 62
50
  6
CONTINUOUS
 10
-0.90000000000047109
 20
-2.4000000000014055
 40
0.13333333333341019
 50
180
 51
270
  0
LINE
  8
0
 62
50
  6
CONTINUOUS
 10
-1.0333333333338812
 20
-2.4000000000014055
 11
-1.0333333333339216
 21
-0.6000000000003699
  0
ARC
  8
0
 62
50
  6
CONTINUOUS
 10
-0.90000000000051139
 20
-0.60000000000036813
 40
0.13333333333341019
 50
90
 51
180
  0
LINE
  8
0
 62
50
  6
CONTINUOUS
 10
-0.90000000000051505
 20
-0.46666666666695655
 11
-0.43333333333357943
 21
-0.4666666666669459
  0
LINE
  8
0
 62
50
  6
CONTINUOUS
 10
-0.43333333333357943
 20
-0.4666666666669459
 11
-0.43333333333358309
 21
-0.33333333333353649
  0
LINE
  8
0
 62
50
  6
CONTINUOUS
 10
-0.43333333333358309
 20
-0.33333333333353649
 11
-0.90000000000051872
 21
-0.33333333333354714
  0
ARC
  8
0
 62
50
  6
CONTINUOUS
 10
-0.90000000000051139
 20
-0.60000000000036813
 40
0.26666666666682037
 50
90
 51
180
  0
LINE
  8
0
 62
50
  6
CONTINUOUS
 10
-1.1666666666673318
 20
-0.60000000000037346
 11
-1.1666666666672878
 21
-2.4000000000014126
  0
ARC
  8
0
 62
50
  6
CONTINUOUS
 10
-0.90000000000047109
 20
-2.4000000000014055
 40
0.26666666666682037
 50
180
 51
270
  0
LINE
  8
0
 62
50
  6
CONTINUOUS
 10
-0.90000000000046365
 20
-2.6666666666682182
 11
-0.19999999999826693
 21
-2.6666666666682142
  0
LINE
  8
0
 62
50
  6
CONTINUOUS
 10
0.20000000000196363
 20
-2.6666666666682048
 11
0.90000000000057379
 21
-2.6666666666681893
  0
LINE
  8
0
 62
50
  6
CONTINUOUS
 10
-0.42666666666685932
 20
-2.6666666666682182
 11
-0.42666666666686287
 21
-2.5333333333348076
  0
LINE
  8
0
 62
50
  6
CONTINUOUS
 10
0.4266666666669659
 20
-2.6666666666681893
 11
0.42666666666696235
 21
-2.5333333333347792
  0
INSERT
  8
0
 62
5
  6
CONTINUOUS
  2
TELL_6
 10
-0.62281419340595734
 20
-0.40057419734820049
 41
1.0
 42
1.0
 50
0.0
  0
INSERT
  8
0
 62
5
  6
CONTINUOUS
  2
TELL_7
 10
0.59066110728882615
 20
-0.39503321423997684
 41
1.0
 42
1.0
 50
0.0
  0
ENDBLK
  0
BLOCK
  8
0
 62
50
  6
CONTINUOUS
  2
TELL_8
 70
0
 10
1.1679669030740065e-089
 20
-2.5333333333347934
  0
LINE
  8
0
 62
50
  6
CONTINUOUS
 10
-0.23333333333346784
 20
-0.73333333333375605
 11
-0.2333333333316337
 21
-2.4666666666680883
  0
LINE
  8
0
 62
50
  6
CONTINUOUS
 10
-0.30000000000017291
 20
-2.5333333333347934
 11
-0.90000000000051872
 21
-2.5333333333347805
  0
LINE
  8
0
 62
50
  6
CONTINUOUS
 10
-0.9666666666672239
 20
-2.4666666666680883
 11
-0.9666666666672239
 21
-0.73333333333375605
  0
LINE
  8
0
 62
50
  6
CONTINUOUS
 10
-0.90000000000051872
 20
-0.66666666666705088
 11
-0.30000000000017291
 21
-0.66666666666705088
  0
ARC
  8
0
 62
50
  6
CONTINUOUS
 10
-0.89999999999868474
 20
-2.466666666668075
 40
0.066666666666705093
 50
180.0000000000114
 51
270
  0
ARC
  8
0
 62
50
  6
CONTINUOUS
 10
-0.29999999999833876
 20
-2.466666666668075
 40
0.066666666666705093
 50
270
 51
359.99999999998857
  0
ARC
  8
0
 62
50
  6
CONTINUOUS
 10
-0.90000000000051872
 20
-0.73333333333375605
 40
0.066666666666705093
 50
90
 51
180
  0
ARC
  8
0
 62
50
  6
CONTINUOUS
 10
-0.29999999999833876
 20
-0.73333333333375605
 40
0.066666666666705093
 50
0
 51
90
  0
LINE
  8
0
 62
50
  6
CONTINUOUS
 10
-0.23333333333163364
 20
-2.0000000000011529
 11
-0.19999999999828114
 21
-2.0000000000011529
  0
LINE
  8
0
 62
50
  6
CONTINUOUS
 10
-0.23333333333163364
 20
-1.2000000000006916
 11
-0.19999999999828114
 21
-1.2000000000006916
  0
ENDBLK
  0
BLOCK
  8
0
 62
5
  6
CONTINUOUS
  2
TELL_9
 70
0
 10
1.1679669030739589e-089
 20
-1.6000000000009222
  0
LINE
  8
0
 62
50
  6
CONTINUOUS
 10
1.2333333333349992
 20
-5.9240109528463263
 11
1.2333333333325587
 21
-7.2000000000041364
  0
LINE
  8
0
 62
50
  6
CONTINUOUS
 10
1.233333333334969
 20
-7.2000000000041364
 11
-1.2333333333331196
 21
-7.2000000000041364
  0
LINE
  8
0
 62
50
  6
CONTINUOUS
 10
-1.2333333333331196
 20
-7.2000000000041364
 11
-1.2333333333330894
 21
-5.9240109528463263
  0
LINE
  8
0
 62
50
  6
CONTINUOUS
 10
-0.19999999999823564
 20
-4.1333333333357025
 11
-1.0895155880596716
 21
-5.4532596898193884
  0
LINE
  8
0
 62
50
  6
CONTINUOUS
 10
1.0895155880615817
 20
-5.4532596898193884
 11
0.20000000000194185
 21
-4.1333333333357025
  0
LINE
  8
0
 62
50
  6
CONTINUOUS
 10
0.20000000000194942
 20
-4.1333333333357025
 11
0.20000000000194942
 21
-0.66666666666703767
  0
LINE
  8
0
 62
50
  6
CONTINUOUS
 10
-0.19999999999828114
 20
-4.1333333333357025
 11
-0.19999999999828114
 21
-0.66666666666703767
  0
LINE
  8
0
 62
50
  6
CONTINUOUS
 10
0.20000000000194942
 20
-0.66666666666703767
 11
-0.19999999999828114
 21
-0.66666666666703767
  0
LINE
  8
0
 62
5
  6
CONTINUOUS
 10
-1.153686882724861
 20
-5.7789412666335842
 11
1.1536868827285141
 21
-5.7789412666335842
  0
ARC
  8
0
 62
50
  6
CONTINUOUS
 10
-0.39098145582279159
 20
-5.9240109528487119
 40
0.84235187751033613
 50
146.02345596373647
 51
179.9999999998378
  0
ARC
  8
0
 62
50
  6
CONTINUOUS
 10
0.39098145582223071
 20
-5.9240109528449523
 40
0.84235187751033613
 50
359.99999999990649
 51
33.976544035957573
  0
ENDBLK
  0
BLOCK
  8
0
 62
50
  6
CONTINUOUS
  2
TELL_10
 70
0
 10
1.6746335697409653e-089
 20
-2.5333333333347934
  0
LINE
  8
0
 62
50
  6
CONTINUOUS
 10
0.23333333333346504
 20
-0.73333333333375583
 11
0.23333333333163359
 21
-2.4666666666680883
  0
LINE
  8
0
 62
50
  6
CONTINUOUS
 10
0.30000000000017291
 20
-2.5333333333347934
 11
0.90000000000051872
 21
-2.5333333333347792
  0
LINE
  8
0
 62
50
  6
CONTINUOUS
 10
0.9666666666672239
 20
-2.4666666666680865
 11
0.96666666666722101
 21
-0.73333333333375439
  0
LINE
  8
0
 62
50
  6
CONTINUOUS
 10
0.90000000000051594
 20
-0.66666666666704932
 11
0.30000000000017008
 21
-0.66666666666705066
  0
ARC
  8
0
 62
50
  6
CONTINUOUS
 10
0.89999999999868474
 20
-2.4666666666680741
 40
0.066666666666705093
 50
270
 51
359.99999999998863
  0
ARC
  8
0
 62
50
  6
CONTINUOUS
 10
0.29999999999833865
 20
-2.466666666668075
 40
0.066666666666705093
 50
180.00000000001143
 51
270
  0
ARC
  8
0
 62
50
  6
CONTINUOUS
 10
0.90000000000051594
 20
-0.73333333333375439
 40
0.066666666666705093
 50
0
 51
90
  0
ARC
  8
0
 62
50
  6
CONTINUOUS
 10
0.29999999999833604
 20
-0.73333333333375583
 40
0.066666666666705093
 50
90
 51
180
  0
LINE
  8
0
 62
50
  6
CONTINUOUS
 10
0.23333333333163281
 20
-2.0000000000011524
 11
0.1999999999982803
 21
-2.0000000000011529
  0
LINE
  8
0
 62
50
  6
CONTINUOUS
 10
0.23333333333163164
 20
-1.2000000000006914
 11
0.19999999999827911
 21
-1.2000000000006914
  0
ENDBLK
  0
BLOCK
  8
0
 62
140
  6
HIDDEN
  2
7_40_C22_1__FEM__DL_TEF
 70
0
 10
0
 20
0
  0
INSERT
  8
0
 62
140
  6
CONTINUOUS
  2
TELL_3
 10
1.2000000000006901
 20
-0.50000000000027611
 41
1.0
 42
1.0
 50
0.0
  0
INSERT
  8
0
 62
140
  6
CONTINUOUS
  2
TELL_4
 10
-1.2000000000006896
 20
-0.5000000000002881
 41
1.0
 42
1.0
 50
0.0
  0
INSERT
  8
0
 62
50
  6
CONTINUOUS
  2
TELL_5
 10
-2.0516973760878491e-089
 20
-0.33333333333352544
 41
1.0
 42
1.0
 50
0.0
  0
INSERT
  8
0
 62
50
  6
CONTINUOUS
  2
TELL_8
 10
1.1679669030740065e-089
 20
-2.5333333333347934
 41
1.0
 42
1.0
 50
0.0
  0
LINE
  8
0
 62
5
  6
DASHDOT
 10
-1.0162991552841885
 20
-1.6000000000009222
 11
1.0203435191067316
 21
-1.6000000000009222
  0
POLYLINE
  8
0
 62
50
  6
CONTINUOUS
 66
1
 70
1
  0
VERTEX
  8
0
 62
50
  6
CONTINUOUS
 10
-4.3333333333358315
 20
-0.33333333333352544
  0
VERTEX
  8
0
 62
50
  6
CONTINUOUS
 10
4.3333333333358315
 20
-0.33333333333352544
  0
VERTEX
  8
0
 62
50
  6
CONTINUOUS
 10
4.3333333333358315
 20
0
  0
VERTEX
  8
0
 62
50
  6
CONTINUOUS
 10
-4.3333333333358315
 20
0
  0
SEQEND
  0
LINE
  8
0
 62
50
  6
CONTINUOUS
 10
-3.9484331538758584
 20
-0.33333333333352544
 11
-3.9484331538758584
 21
0
  0
LINE
  8
0
 62
50
  6
CONTINUOUS
 10
3.9484331538758584
 20
-0.33333333333352544
 11
3.9484331538758584
 21
0
  0
LINE
  8
0
 62
5
  6
DASHDOT
 10
-2.8000000000016141
 20
-0.60000000000034581
 11
-2.8000000000016141
 21
0.26666666666682037
  0
LINE
  8
0
 62
5
  6
DASHDOT
 10
2.8000000000016141
 20
-0.60000000000034581
 11
2.8000000000016141
 21
0.26666666666682037
  0
LINE
  8
0
 62
50
  6
CONTINUOUS
 10
-1.5000000000008624
 20
-0.33333333333352544
 11
-1.1666666666673371
 21
-0.66666666666705066
  0
LINE
  8
0
 62
50
  6
CONTINUOUS
 10
-1.1666666666673371
 20
-0.66666666666705066
 11
-1.1666666666673391
 21
-0.60000000000034581
  0
ARC
  8
0
 62
50
  6
CONTINUOUS
 10
-0.90000000000051661
 20
-0.60000000000035247
 40
0.26666666666682037
 50
90
 51
179.99999999999858
  0
LINE
  8
0
 62
50
  6
CONTINUOUS
 10
-0.90000000000051872
 20
-0.33333333333352544
 11
-1.5000000000008624
 21
-0.33333333333352544
  0
LINE
  8
0
 62
50
  6
CONTINUOUS
 10
1.5000000000008613
 20
-0.33333333333352544
 11
1.166666666667354
 21
-0.66666666666703267
  0
LINE
  8
0
 62
50
  6
CONTINUOUS
 10
1.166666666667354
 20
-0.66666666666703267
 11
1.1666666666673391
 21
-0.60000000000034581
  0
ARC
  8
0
 62
50
  6
CONTINUOUS
 10
0.90000000000052094
 20
-0.60000000000033993
 40
0.26666666666682037
 50
359.99999999999875
 51
90
  0
LINE
  8
0
 62
50
  6
CONTINUOUS
 10
0.90000000000051872
 20
-0.33333333333352544
 11
1.5000000000008613
 21
-0.33333333333352544
  0
LINE
  8
0
 62
5
  6
DASHDOT
 10
1.1679669030739589e-089
 20
-7.4104000281666789
 11
5.9151300236440693e-090
 21
-0.55122143420047143
  0
INSERT
  8
0
 62
5
  6
CONTINUOUS
  2
TELL_9
 10
1.1679669030739589e-089
 20
-1.6000000000009222
 41
1.0
 42
1.0
 50
0.0
  0
INSERT
  8
0
 62
50
  6
CONTINUOUS
  2
TELL_10
 10
1.6746335697409653e-089
 20
-2.5333333333347934
 41
1.0
 42
1.0
 50
0.0
  0
ENDBLK
  0
ENDSEC
  0
SECTION
  2
ENTITIES
  0
INSERT
  8
0
 62
140
  6
HIDDEN
  2
TELL_1
 10
-14.00000000000807
 20
0
 41
1.0
 42
1.0
 50
0.0
  0
INSERT
  8
0
 62
140
  6
HIDDEN
  2
7_40_C22_1__FEM__DL_TEF
 10
0
 20
0
 41
1.0
 42
1.0
 50
0.0
  0
ENDSEC
  0
EOF
