  0
SECTION
  2
HEADER
  9
$ACADVER
  1
AC1009
  9
$EXTMIN
 10
-20.772946859903382
 20
-12.479871175523344
  9
$EXTMAX
 10
4.2270531400966167
 20
0.22471952886178764
  9
$TEXTSTYLE
  7
STANDARD
  9
$DIMLFAC
 40
1
  9
$REGENMODE
 70
1
  9
$DRAGMODE
 70
2
  9
$DIMASO
 70
1
  9
$LTSCALE
 40
1.0000000000
  0
ENDSEC
  0
SECTION
  2
TABLES
  0
TABLE
  2
LTYPE
 70
3
  0
LTYPE
  2
CONTINUOUS
 70
64
  3
CONTINUOUS
 72
65
 73
0
 40
0.0000000000
  0
LTYPE
  2
HIDDEN
 70
64
  3
HIDDEN
 72
65
 73
2
 40
0.5000000000
 49
0.2500000000
 49
-0.2500000000
  0
LTYPE
  2
DASHDOT
 70
64
  3
DASHDOT
 72
65
 73
4
 40
1.0000000000
 49
0.5000000000
 49
-0.2500000000
 49
0.0000000000
 49
-0.2500000000
  0
ENDTAB
  0
TABLE
  2
LAYER
 70
1
  0
LAYER
  2
0
 70
0
 62
2
  6
CONTINUOUS
  0
ENDTAB
  0
TABLE
  2
STYLE
 70
0
  0
STYLE
  2
Standard
 70
0
 40
0
 41
1
 50
0
 71
0
 42
2.5
  3
txt
  4

  0
ENDTAB
  0
ENDSEC
  0
SECTION
  2
BLOCKS
  0
BLOCK
  8
0
 62
5
  6
DASHDOT
  2
TELL_3
 70
0
 10
-9.5008051529790638
 20
-3.2206119162640889
  0
LINE
  8
0
 62
50
  6
CONTINUOUS
 10
-9.7423510466988716
 20
-4.4282004830917856
 11
-9.6991344605475032
 21
-4.4714170692431541
  0
LINE
  8
0
 62
50
  6
CONTINUOUS
 10
-9.6991344605475032
 20
-4.4714170692431541
 11
-9.302475845410628
 21
-4.4714170692431541
  0
LINE
  8
0
 62
50
  6
CONTINUOUS
 10
-9.302475845410628
 20
-4.4714170692431541
 11
-9.2592592592592595
 21
-4.4282004830917856
  0
LINE
  8
0
 62
50
  6
CONTINUOUS
 10
-9.7423510466988716
 20
-4.4282004830917856
 11
-9.2592592592592595
 21
-4.4282004830917856
  0
ARC
  8
0
 62
50
  6
CONTINUOUS
 10
-9.8320145465359143
 20
-4.1972792538902297
 40
0.17151435856145986
 50
49.932012950555986
 51
130.06798704968185
  0
ARC
  8
0
 62
50
  6
CONTINUOUS
 10
-9.5008051529790585
 20
-4.6514358561446576
 40
0.62567096081588836
 50
69.334521817119878
 51
110.66547818288012
  0
ARC
  8
0
 62
50
  6
CONTINUOUS
 10
-9.1695957594222133
 20
-4.1972792538902297
 40
0.17151435856146
 50
49.93201295031821
 51
130.06798704944401
  0
LINE
  8
0
 62
50
  6
CONTINUOUS
 10
-9.0591926282367137
 20
-4.0660225442833111
 11
-9.0591926282367101
 21
-4.3880837359072329
  0
ARC
  8
0
 62
50
  6
CONTINUOUS
 10
-9.1695957594222097
 20
-4.2568270263003205
 40
0.17151435856146
 50
229.93201295055599
 51
310.06798704968179
  0
ARC
  8
0
 62
50
  6
CONTINUOUS
 10
-9.5008051529790638
 20
-3.8026704240458926
 40
0.62567096081588836
 50
249.33452181711988
 51
290.66547818288012
  0
ARC
  8
0
 62
50
  6
CONTINUOUS
 10
-9.8320145465359108
 20
-4.2568270263003214
 40
0.17151435856145986
 50
229.93201295031815
 51
310.06798704944413
  0
LINE
  8
0
 62
50
  6
CONTINUOUS
 10
-9.9424176777214122
 20
-4.3880837359072391
 11
-9.9424176777214157
 21
-4.0660225442833182
  0
LINE
  8
0
 62
50
  6
CONTINUOUS
 10
-9.8320145465378364
 20
-4.4283413848617812
 11
-9.1695957594202859
 21
-4.4283413848617803
  0
LINE
  8
0
 62
50
  6
CONTINUOUS
 10
-9.8320145465378399
 20
-4.0257648953287699
 11
-9.1695957594202877
 21
-4.0257648953287699
  0
LINE
  8
0
 62
50
  6
CONTINUOUS
 10
-9.7216114153502371
 20
-4.3880837359071601
 11
-9.7216114153502406
 21
-4.0660225442833902
  0
LINE
  8
0
 62
50
  6
CONTINUOUS
 10
-9.2799988906078852
 20
-4.3880837359071601
 11
-9.2799988906078887
 21
-4.0660225442833902
  0
LINE
  8
0
 62
50
  6
CONTINUOUS
 10
-9.7423510466988716
 20
-4.4282004830917856
 11
-9.7423510466988681
 21
-4.4283413848617803
  0
LINE
  8
0
 62
50
  6
CONTINUOUS
 10
-9.2592592592592595
 20
-4.4282004830917856
 11
-9.259259259259256
 21
-4.4283413848617803
  0
LINE
  8
0
 62
5
  6
CONTINUOUS
 10
-9.7423510466988787
 20
-3.2206119162640889
 11
-9.7423510466988716
 21
-4.0257648953287699
  0
LINE
  8
0
 62
5
  6
CONTINUOUS
 10
-9.2592592592592649
 20
-3.2206119162640889
 11
-9.2592592592592577
 21
-4.0257648953287699
  0
LINE
  8
0
 62
5
  6
CONTINUOUS
 10
-9.6991344605475032
 20
-4.4714170692431541
 11
-9.6991344605474996
 21
-4.4283413848617803
  0
LINE
  8
0
 62
5
  6
CONTINUOUS
 10
-9.302475845410628
 20
-4.4714170692431541
 11
-9.3024758454106227
 21
-4.4283413848617803
  0
LINE
  8
0
 62
5
  6
CONTINUOUS
 10
-9.6991344605475032
 20
-4.0257648953287699
 11
-9.6991344605475103
 21
-3.2206119162640889
  0
LINE
  8
0
 62
5
  6
CONTINUOUS
 10
-9.3024758454106262
 20
-4.0257648953287699
 11
-9.3024758454106351
 21
-3.2206119162640889
  0
LINE
  8
0
 62
5
  6
CONTINUOUS
 10
-9.762479871175529
 20
-3.2206119162640889
 11
-9.7020933977455766
 21
-2.8582930756843776
  0
LINE
  8
0
 62
5
  6
CONTINUOUS
 10
-9.2391304347826146
 20
-3.2206119162640889
 11
-9.2995169082125653
 21
-2.858293075684379
  0
LINE
  8
0
 62
5
  6
CONTINUOUS
 10
-9.7020933977455766
 20
-2.858293075684379
 11
-9.2995169082125653
 21
-2.8582930756843834
  0
LINE
  8
0
 62
5
  6
CONTINUOUS
 10
-9.762479871175529
 20
-3.2206119162640845
 11
-9.2391304347826146
 21
-3.2206119162640889
  0
ENDBLK
  0
BLOCK
  8
0
 62
5
  6
DASHDOT
  2
TELL_2
 70
0
 10
-9.5008051529790638
 20
-3.8244766505636054
  0
LINE
  8
0
 62
50
  6
CONTINUOUS
 10
-8.6956521739130501
 20
-3.099838969404181
 11
-8.6956521739130448
 21
-4.0257648953301075
  0
LINE
  8
0
 62
50
  6
CONTINUOUS
 10
-8.6956521739130448
 20
-4.0257648953301075
 11
-10.30595813204509
 21
-4.0257648953301155
  0
LINE
  8
0
 62
50
  6
CONTINUOUS
 10
-10.30595813204509
 20
-4.0257648953301155
 11
-10.305958132045093
 21
-3.0998389694041895
  0
LINE
  8
0
 62
50
  6
CONTINUOUS
 10
-10.305958132045093
 20
-3.0998389694041895
 11
-8.6956521739130501
 21
-3.099838969404181
  0
LINE
  8
0
 62
5
  6
DASHDOT
 10
-9.5008051529790762
 20
-2.764822391476498
 11
-9.5008051529790691
 21
-4.5482118423151983
  0
INSERT
  8
0
 62
5
  6
DASHDOT
  2
TELL_3
 10
-9.5008051529790638
 20
-3.2206119162640889
 41
1.0
 42
1.0
 50
0.0
  0
ENDBLK
  0
BLOCK
  8
0
 62
5
  6
DASHDOT
  2
TELL_5
 70
0
 10
-19.967793880837359
 20
-3.2206119162640889
  0
LINE
  8
0
 62
50
  6
CONTINUOUS
 10
-20.209339774557169
 20
-4.4282004830917856
 11
-20.166123188405798
 21
-4.4714170692431541
  0
LINE
  8
0
 62
50
  6
CONTINUOUS
 10
-20.166123188405798
 20
-4.4714170692431541
 11
-19.769464573268923
 21
-4.4714170692431541
  0
LINE
  8
0
 62
50
  6
CONTINUOUS
 10
-19.769464573268923
 20
-4.4714170692431541
 11
-19.726247987117556
 21
-4.4282004830917856
  0
LINE
  8
0
 62
50
  6
CONTINUOUS
 10
-20.209339774557169
 20
-4.4282004830917856
 11
-19.726247987117556
 21
-4.4282004830917856
  0
ARC
  8
0
 62
50
  6
CONTINUOUS
 10
-20.299003274394209
 20
-4.1972792538902297
 40
0.17151435856145986
 50
49.932012950555986
 51
130.06798704968185
  0
ARC
  8
0
 62
50
  6
CONTINUOUS
 10
-19.967793880837355
 20
-4.6514358561446576
 40
0.62567096081588836
 50
69.334521817119878
 51
110.66547818288012
  0
ARC
  8
0
 62
50
  6
CONTINUOUS
 10
-19.636584487280508
 20
-4.1972792538902297
 40
0.17151435856146
 50
49.93201295031821
 51
130.06798704944401
  0
LINE
  8
0
 62
50
  6
CONTINUOUS
 10
-19.526181356095005
 20
-4.0660225442833111
 11
-19.526181356095005
 21
-4.3880837359072329
  0
ARC
  8
0
 62
50
  6
CONTINUOUS
 10
-19.636584487280505
 20
-4.2568270263003205
 40
0.17151435856146
 50
229.93201295055599
 51
310.06798704968179
  0
ARC
  8
0
 62
50
  6
CONTINUOUS
 10
-19.967793880837359
 20
-3.8026704240458926
 40
0.62567096081588836
 50
249.33452181711988
 51
290.66547818288012
  0
ARC
  8
0
 62
50
  6
CONTINUOUS
 10
-20.299003274394209
 20
-4.2568270263003214
 40
0.17151435856145986
 50
229.93201295031815
 51
310.06798704944413
  0
LINE
  8
0
 62
50
  6
CONTINUOUS
 10
-20.409406405579709
 20
-4.3880837359072391
 11
-20.409406405579709
 21
-4.0660225442833182
  0
LINE
  8
0
 62
50
  6
CONTINUOUS
 10
-20.299003274396132
 20
-4.4283413848617812
 11
-19.636584487278583
 21
-4.4283413848617803
  0
LINE
  8
0
 62
50
  6
CONTINUOUS
 10
-20.299003274396135
 20
-4.0257648953287699
 11
-19.636584487278583
 21
-4.0257648953287699
  0
LINE
  8
0
 62
50
  6
CONTINUOUS
 10
-20.188600143208532
 20
-4.3880837359071601
 11
-20.188600143208536
 21
-4.0660225442833902
  0
LINE
  8
0
 62
50
  6
CONTINUOUS
 10
-19.746987618466182
 20
-4.3880837359071601
 11
-19.746987618466182
 21
-4.0660225442833902
  0
LINE
  8
0
 62
50
  6
CONTINUOUS
 10
-20.209339774557169
 20
-4.4282004830917856
 11
-20.209339774557165
 21
-4.4283413848617803
  0
LINE
  8
0
 62
50
  6
CONTINUOUS
 10
-19.726247987117556
 20
-4.4282004830917856
 11
-19.726247987117553
 21
-4.4283413848617803
  0
LINE
  8
0
 62
5
  6
CONTINUOUS
 10
-20.209339774557169
 20
-3.2206119162640889
 11
-20.209339774557165
 21
-4.0257648953287699
  0
LINE
  8
0
 62
5
  6
CONTINUOUS
 10
-19.726247987117556
 20
-3.2206119162640889
 11
-19.726247987117553
 21
-4.0257648953287699
  0
LINE
  8
0
 62
5
  6
CONTINUOUS
 10
-20.166123188405798
 20
-4.4714170692431541
 11
-20.166123188405795
 21
-4.4283413848617803
  0
LINE
  8
0
 62
5
  6
CONTINUOUS
 10
-19.769464573268923
 20
-4.4714170692431541
 11
-19.76946457326892
 21
-4.4283413848617803
  0
LINE
  8
0
 62
5
  6
CONTINUOUS
 10
-20.166123188405798
 20
-4.0257648953287699
 11
-20.166123188405802
 21
-3.2206119162640889
  0
LINE
  8
0
 62
5
  6
CONTINUOUS
 10
-19.76946457326892
 20
-4.0257648953287699
 11
-19.769464573268927
 21
-3.2206119162640889
  0
LINE
  8
0
 62
5
  6
CONTINUOUS
 10
-20.229468599033819
 20
-3.2206119162640889
 11
-20.169082125603868
 21
-2.8582930756843776
  0
LINE
  8
0
 62
5
  6
CONTINUOUS
 10
-19.706119162640906
 20
-3.2206119162640889
 11
-19.766505636070857
 21
-2.858293075684379
  0
LINE
  8
0
 62
5
  6
CONTINUOUS
 10
-20.169082125603868
 20
-2.858293075684379
 11
-19.766505636070857
 21
-2.8582930756843834
  0
LINE
  8
0
 62
5
  6
CONTINUOUS
 10
-20.229468599033819
 20
-3.2206119162640845
 11
-19.706119162640906
 21
-3.2206119162640889
  0
ENDBLK
  0
BLOCK
  8
0
 62
5
  6
DASHDOT
  2
TELL_4
 70
0
 10
-19.967793880837359
 20
-3.8244766505636054
  0
LINE
  8
0
 62
50
  6
CONTINUOUS
 10
-19.16264090177134
 20
-3.099838969404181
 11
-19.16264090177134
 21
-4.0257648953301075
  0
LINE
  8
0
 62
50
  6
CONTINUOUS
 10
-19.16264090177134
 20
-4.0257648953301075
 11
-20.772946859903382
 21
-4.0257648953301155
  0
LINE
  8
0
 62
50
  6
CONTINUOUS
 10
-20.772946859903382
 20
-4.0257648953301155
 11
-20.772946859903382
 21
-3.0998389694041895
  0
LINE
  8
0
 62
50
  6
CONTINUOUS
 10
-20.772946859903382
 20
-3.0998389694041895
 11
-19.16264090177134
 21
-3.099838969404181
  0
LINE
  8
0
 62
5
  6
DASHDOT
 10
-19.967793880837366
 20
-2.764822391476498
 11
-19.967793880837363
 21
-4.5482118423151983
  0
INSERT
  8
0
 62
5
  6
DASHDOT
  2
TELL_5
 10
-19.967793880837359
 20
-3.2206119162640889
 41
1.0
 42
1.0
 50
0.0
  0
ENDBLK
  0
BLOCK
  8
0
 62
5
  6
HIDDEN
  2
TELL_1
 70
0
 10
-14.734299516908209
 20
0
  0
LINE
  8
0
 62
50
  6
CONTINUOUS
 10
-19.162640901771336
 20
-3.8244766505636054
 11
-10.30595813204509
 21
-3.8244766505636054
  0
LINE
  8
0
 62
50
  6
CONTINUOUS
 10
-8.6956521739130448
 20
-3.8244766505636054
 11
-8.6956521739130448
 21
-0.40257648953301112
  0
LINE
  8
0
 62
50
  6
CONTINUOUS
 10
-8.6956521739130448
 20
-0.40257648953301112
 11
-20.772946859903378
 21
-0.40257648953301112
  0
LINE
  8
0
 62
50
  6
CONTINUOUS
 10
-20.772946859903378
 20
-0.40257648953301112
 11
-20.772946859903378
 21
-3.8244766505636054
  0
INSERT
  8
0
 62
5
  6
DASHDOT
  2
TELL_2
 10
-9.5008051529790638
 20
-3.8244766505636054
 41
1.0
 42
1.0
 50
0.0
  0
LINE
  8
0
 62
5
  6
HIDDEN
 10
-20.772946859903378
 20
-3.8244766505636054
 11
-19.162640901771336
 21
-3.8244766505636054
  0
LINE
  8
0
 62
5
  6
HIDDEN
 10
-8.6956521739130466
 20
-3.7439613526570032
 11
-20.772946859903378
 21
-3.7439613526570032
  0
LINE
  8
0
 62
5
  6
HIDDEN
 10
-10.30595813204509
 20
-3.8244766505636054
 11
-8.6956521739130466
 21
-3.8244766505636054
  0
LINE
  8
0
 62
5
  6
HIDDEN
 10
-20.772946859903378
 20
-0.48309178743961334
 11
-8.6956521739130448
 21
-0.48309178743961334
  0
CIRCLE
  8
0
 62
5
  6
HIDDEN
 10
-14.734299516908212
 20
-2.2946859903381633
 40
1.4492753623188399
  0
LINE
  8
0
 62
5
  6
DASHDOT
 10
-16.473429951690818
 20
-2.2946859903381633
 11
-12.995169082125605
 21
-2.2946859903381633
  0
LINE
  8
0
 62
5
  6
DASHDOT
 10
-14.734299516908212
 20
-4.0338164251207713
 11
-14.734299516908212
 21
0.22471952886178764
  0
LINE
  8
0
 62
5
  6
HIDDEN
 10
-16.344605475040257
 20
-3.8244766505636054
 11
-16.344605475040257
 21
-0.88566827697262451
  0
LINE
  8
0
 62
5
  6
HIDDEN
 10
-16.344605475040257
 20
-0.88566827697262451
 11
-13.123993558776167
 21
-0.88566827697262451
  0
LINE
  8
0
 62
5
  6
HIDDEN
 10
-13.123993558776167
 20
-0.88566827697262451
 11
-13.123993558776167
 21
-3.8244766505636054
  0
LINE
  8
0
 62
50
  6
CONTINUOUS
 10
-16.344605475040257
 20
-3.8244766505636054
 11
-16.344605475040257
 21
-12.479871175523344
  0
LINE
  8
0
 62
50
  6
CONTINUOUS
 10
-16.344605475040257
 20
-12.479871175523344
 11
-13.123993558776167
 21
-12.479871175523344
  0
LINE
  8
0
 62
50
  6
CONTINUOUS
 10
-13.123993558776167
 20
-12.479871175523344
 11
-13.123993558776167
 21
-3.8244766505636054
  0
LINE
  8
0
 62
5
  6
HIDDEN
 10
-20.772946859903378
 20
-3.2206119162640889
 11
-8.6956521739130466
 21
-3.2206119162640889
  0
INSERT
  8
0
 62
5
  6
DASHDOT
  2
TELL_4
 10
-19.967793880837359
 20
-3.8244766505636054
 41
1.0
 42
1.0
 50
0.0
  0
LINE
  8
0
 62
50
  6
CONTINUOUS
 10
-16.747181964573269
 20
-0.40257648953301112
 11
-16.747181964573269
 21
0
  0
LINE
  8
0
 62
50
  6
CONTINUOUS
 10
-16.747181964573269
 20
0
 11
-12.721417069243156
 21
0
  0
LINE
  8
0
 62
50
  6
CONTINUOUS
 10
-12.721417069243156
 20
0
 11
-12.721417069243156
 21
-0.40257648953301112
  0
ENDBLK
  0
BLOCK
  8
0
 62
5
  6
CONTINUOUS
  2
TELL_7
 70
0
 10
1.4090177133655388
 20
-3.2327635357288496
  0
LINE
  8
0
 62
5
  6
CONTINUOUS
 10
-1.3982268571853638
 20
-0.50565153360366821
 11
-1.3059425354003906
 21
-0.41336724162101746
  0
LINE
  8
0
 62
5
  6
CONTINUOUS
 10
-1.2382189035415649
 20
-0.40257647633552551
 11
-1.4090176820755005
 21
-0.57337522506713867
  0
LINE
  8
0
 62
5
  6
CONTINUOUS
 10
-1.4090176820755005
 20
-0.63030815124511719
 11
-1.3270398378372192
 21
-0.54833024740219116
  0
LINE
  8
0
 62
5
  6
CONTINUOUS
 10
-1.2632639408111572
 20
-0.48455435037612915
 11
-1.181286096572876
 21
-0.40257647633552551
  0
LINE
  8
0
 62
5
  6
CONTINUOUS
 10
-1.1243531703948975
 20
-0.40257647633552551
 11
-1.2048684358596802
 21
-0.483091801404953
  0
LINE
  8
0
 62
5
  6
CONTINUOUS
 10
-1.3285024166107178
 20
-0.60672575235366821
 11
-1.4090176820755005
 21
-0.6872410774230957
  0
LINE
  8
0
 62
5
  6
CONTINUOUS
 10
-1.4090176820755005
 20
-0.74417394399642944
 11
-1.3285024166107178
 21
-0.66365867853164673
  0
LINE
  8
0
 62
5
  6
CONTINUOUS
 10
-1.1479355096817017
 20
-0.483091801404953
 11
-1.0674202442169189
 21
-0.40257647633552551
  0
LINE
  8
0
 62
5
  6
CONTINUOUS
 10
-1.0104873180389404
 20
-0.40257647633552551
 11
-1.0910027027130127
 21
-0.483091801404953
  0
LINE
  8
0
 62
5
  6
CONTINUOUS
 10
-1.3285024166107178
 20
-0.72059154510498047
 11
-1.4090176820755005
 21
-0.80110687017440796
  0
LINE
  8
0
 62
5
  6
CONTINUOUS
 10
-1.4090176820755005
 20
-0.85803979635238647
 11
-1.3285024166107178
 21
-0.77752453088760376
  0
LINE
  8
0
 62
5
  6
CONTINUOUS
 10
-1.0340696573257446
 20
-0.483091801404953
 11
-0.95355439186096191
 21
-0.40257647633552551
  0
LINE
  8
0
 62
5
  6
CONTINUOUS
 10
-0.8966214656829834
 20
-0.40257647633552551
 11
-0.97713679075241089
 21
-0.483091801404953
  0
LINE
  8
0
 62
5
  6
CONTINUOUS
 10
-1.3285024166107178
 20
-0.8344573974609375
 11
-1.4090176820755005
 21
-0.91497272253036499
  0
LINE
  8
0
 62
5
  6
CONTINUOUS
 10
-1.4090176820755005
 20
-0.97190564870834351
 11
-1.3285024166107178
 21
-0.89139032363891602
  0
LINE
  8
0
 62
5
  6
CONTINUOUS
 10
-0.92020386457443237
 20
-0.483091801404953
 11
-0.83968859910964966
 21
-0.40257647633552551
  0
LINE
  8
0
 62
5
  6
CONTINUOUS
 10
-0.78275567293167114
 20
-0.40257647633552551
 11
-0.86327099800109863
 21
-0.483091801404953
  0
LINE
  8
0
 62
5
  6
CONTINUOUS
 10
-1.3285024166107178
 20
-0.94832324981689453
 11
-1.4090176820755005
 21
-1.0288385152816772
  0
LINE
  8
0
 62
5
  6
CONTINUOUS
 10
-1.4090176820755005
 20
-1.0857714414596558
 11
-1.3285024166107178
 21
-1.005256175994873
  0
LINE
  8
0
 62
5
  6
CONTINUOUS
 10
-0.80633807182312012
 20
-0.483091801404953
 11
-0.7258228063583374
 21
-0.40257647633552551
  0
LINE
  8
0
 62
5
  6
CONTINUOUS
 10
-0.66888982057571411
 20
-0.40257647633552551
 11
-0.74940508604049683
 21
-0.483091801404953
  0
LINE
  8
0
 62
5
  6
CONTINUOUS
 10
-1.3285024166107178
 20
-1.0621891021728516
 11
-1.4090176820755005
 21
-1.1427043676376343
  0
LINE
  8
0
 62
5
  6
CONTINUOUS
 10
-1.4090176820755005
 20
-1.1996372938156128
 11
-1.3285024166107178
 21
-1.1191220283508301
  0
LINE
  8
0
 62
5
  6
CONTINUOUS
 10
-0.69247221946716309
 20
-0.483091801404953
 11
-0.6119568943977356
 21
-0.40257647633552551
  0
LINE
  8
0
 62
5
  6
CONTINUOUS
 10
-0.55502402782440186
 20
-0.40257647633552551
 11
-0.63553929328918457
 21
-0.483091801404953
  0
LINE
  8
0
 62
5
  6
CONTINUOUS
 10
-1.3285024166107178
 20
-1.176054835319519
 11
-1.4090176820755005
 21
-1.2565702199935913
  0
LINE
  8
0
 62
5
  6
CONTINUOUS
 10
-1.4090176820755005
 20
-1.3135031461715698
 11
-1.3285024166107178
 21
-1.2329877614974976
  0
LINE
  8
0
 62
5
  6
CONTINUOUS
 10
-0.57860642671585083
 20
-0.483091801404953
 11
-0.49809113144874573
 21
-0.40257647633552551
  0
LINE
  8
0
 62
5
  6
CONTINUOUS
 10
-0.44115817546844482
 20
-0.40257647633552551
 11
-0.52167350053787231
 21
-0.483091801404953
  0
LINE
  8
0
 62
5
  6
CONTINUOUS
 10
-1.3285024166107178
 20
-1.2899206876754761
 11
-1.4090176820755005
 21
-1.3704359531402588
  0
LINE
  8
0
 62
5
  6
CONTINUOUS
 10
-1.4090176820755005
 20
-1.4273689985275269
 11
-1.3285024166107178
 21
-1.3468536138534546
  0
LINE
  8
0
 62
5
  6
CONTINUOUS
 10
-0.4647405743598938
 20
-0.483091801404953
 11
-0.3842252790927887
 21
-0.40257647633552551
  0
LINE
  8
0
 62
5
  6
CONTINUOUS
 10
-0.32729235291481018
 20
-0.40257647633552551
 11
-0.40780764818191528
 21
-0.483091801404953
  0
LINE
  8
0
 62
5
  6
CONTINUOUS
 10
-1.3285024166107178
 20
-1.4037864208221436
 11
-1.4090176820755005
 21
-1.4843018054962158
  0
LINE
  8
0
 62
5
  6
CONTINUOUS
 10
-1.4090176820755005
 20
-1.5412347316741943
 11
-1.3285024166107178
 21
-1.4607194662094116
  0
LINE
  8
0
 62
5
  6
CONTINUOUS
 10
-0.35087475180625916
 20
-0.483091801404953
 11
-0.27035945653915405
 21
-0.40257647633552551
  0
LINE
  8
0
 62
5
  6
CONTINUOUS
 10
-0.21342653036117554
 20
-0.40257647633552551
 11
-0.29394182562828064
 21
-0.483091801404953
  0
LINE
  8
0
 62
5
  6
CONTINUOUS
 10
-1.3285024166107178
 20
-1.5176523923873901
 11
-1.4090176820755005
 21
-1.5981677770614624
  0
LINE
  8
0
 62
5
  6
CONTINUOUS
 10
-1.4090176820755005
 20
-1.6551005840301514
 11
-1.3285024166107178
 21
-1.5745851993560791
  0
LINE
  8
0
 62
5
  6
CONTINUOUS
 10
-0.23700891435146332
 20
-0.483091801404953
 11
-0.15649363398551941
 21
-0.40257647633552551
  0
LINE
  8
0
 62
5
  6
CONTINUOUS
 10
-0.099560707807540894
 20
-0.40257647633552551
 11
-0.18007601797580719
 21
-0.483091801404953
  0
LINE
  8
0
 62
5
  6
CONTINUOUS
 10
-1.3285024166107178
 20
-1.6315182447433472
 11
-1.4090176820755005
 21
-1.7120335102081299
  0
LINE
  8
0
 62
5
  6
CONTINUOUS
 10
-1.4090176820755005
 20
-1.7689663171768188
 11
-1.3285024166107178
 21
-1.6884510517120361
  0
LINE
  8
0
 62
5
  6
CONTINUOUS
 10
-0.12314309924840927
 20
-0.483091801404953
 11
-0.042627796530723572
 21
-0.40257647633552551
  0
LINE
  8
0
 62
5
  6
CONTINUOUS
 10
0.01430511474609375
 20
-0.40257647633552551
 11
-0.066210180521011353
 21
-0.483091801404953
  0
LINE
  8
0
 62
5
  6
CONTINUOUS
 10
-1.3285024166107178
 20
-1.7453839778900146
 11
-1.4090176820755005
 21
-1.8258993625640869
  0
LINE
  8
0
 62
5
  6
CONTINUOUS
 10
-1.4090176820755005
 20
-1.8828322887420654
 11
-1.3285024166107178
 21
-1.8023170232772827
  0
LINE
  8
0
 62
5
  6
CONTINUOUS
 10
-0.0092772701755166054
 20
-0.483091801404953
 11
0.071238026022911072
 21
-0.40257647633552551
  0
LINE
  8
0
 62
5
  6
CONTINUOUS
 10
0.12817093729972839
 20
-0.40257647633552551
 11
0.047655642032623291
 21
-0.483091801404953
  0
LINE
  8
0
 62
5
  6
CONTINUOUS
 10
-1.3285024166107178
 20
-1.8592498302459717
 11
-1.4090176820755005
 21
-1.9397650957107544
  0
LINE
  8
0
 62
5
  6
CONTINUOUS
 10
-1.4090176820755005
 20
-1.9966981410980225
 11
-1.3285024166107178
 21
-1.9161827564239502
  0
LINE
  8
0
 62
5
  6
CONTINUOUS
 10
0.10458856076002121
 20
-0.483091801404953
 11
0.18510384857654572
 21
-0.40257647633552551
  0
LINE
  8
0
 62
5
  6
CONTINUOUS
 10
0.24203675985336304
 20
-0.40257647633552551
 11
0.16152146458625793
 21
-0.483091801404953
  0
LINE
  8
0
 62
5
  6
CONTINUOUS
 10
-1.3285024166107178
 20
-1.9731155633926392
 11
-1.4090176820755005
 21
-2.0536308288574219
  0
LINE
  8
0
 62
5
  6
CONTINUOUS
 10
-1.4090176820755005
 20
-2.1105639934539795
 11
-1.3285024166107178
 21
-2.0300486087799072
  0
LINE
  8
0
 62
5
  6
CONTINUOUS
 10
0.21845437586307526
 20
-0.483091801404953
 11
0.29896968603134155
 21
-0.40257647633552551
  0
LINE
  8
0
 62
5
  6
CONTINUOUS
 10
0.35590258240699768
 20
-0.40257647633552551
 11
0.27538728713989258
 21
-0.483091801404953
  0
LINE
  8
0
 62
5
  6
CONTINUOUS
 10
-1.3285024166107178
 20
-2.0869815349578857
 11
-1.4090176820755005
 21
-2.167496919631958
  0
LINE
  8
0
 62
5
  6
CONTINUOUS
 10
-1.4090176820755005
 20
-2.2244296073913574
 11
-1.3285024166107178
 21
-2.1439144611358643
  0
LINE
  8
0
 62
5
  6
CONTINUOUS
 10
0.33232021331787109
 20
-0.483091801404953
 11
0.4128355085849762
 21
-0.40257647633552551
  0
LINE
  8
0
 62
5
  6
CONTINUOUS
 10
0.46976840496063232
 20
-0.40257647633552551
 11
0.38925310969352722
 21
-0.483091801404953
  0
LINE
  8
0
 62
5
  6
CONTINUOUS
 10
-1.3285024166107178
 20
-2.2008473873138428
 11
-1.4090176820755005
 21
-2.281362771987915
  0
LINE
  8
0
 62
5
  6
CONTINUOUS
 10
-1.4090176820755005
 20
-2.3382954597473145
 11
-1.3285024166107178
 21
-2.2577800750732422
  0
LINE
  8
0
 62
5
  6
CONTINUOUS
 10
0.44618603587150574
 20
-0.483091801404953
 11
0.52670133113861084
 21
-0.40257647633552551
  0
LINE
  8
0
 62
5
  6
CONTINUOUS
 10
0.58363425731658936
 20
-0.40257647633552551
 11
0.50311893224716187
 21
-0.483091801404953
  0
LINE
  8
0
 62
5
  6
CONTINUOUS
 10
-1.3285024166107178
 20
-2.3147132396697998
 11
-1.4090176820755005
 21
-2.395228385925293
  0
LINE
  8
0
 62
5
  6
CONTINUOUS
 10
-1.4090176820755005
 20
-2.4521613121032715
 11
-1.3285024166107178
 21
-2.3716461658477783
  0
LINE
  8
0
 62
5
  6
CONTINUOUS
 10
0.56005185842514038
 20
-0.483091801404953
 11
0.6405671238899231
 21
-0.40257647633552551
  0
LINE
  8
0
 62
5
  6
CONTINUOUS
 10
0.69750005006790161
 20
-0.40257647633552551
 11
0.6169847846031189
 21
-0.483091801404953
  0
LINE
  8
0
 62
5
  6
CONTINUOUS
 10
-1.3285024166107178
 20
-2.4285788536071777
 11
-1.4090176820755005
 21
-2.50909423828125
  0
LINE
  8
0
 62
5
  6
CONTINUOUS
 10
-1.4090176820755005
 20
-2.5660271644592285
 11
-1.3285024166107178
 21
-2.4855120182037354
  0
LINE
  8
0
 62
5
  6
CONTINUOUS
 10
0.67391771078109741
 20
-0.483091801404953
 11
0.7544330358505249
 21
-0.40257647633552551
  0
LINE
  8
0
 62
5
  6
CONTINUOUS
 10
0.81136590242385864
 20
-0.40257647633552551
 11
0.73085063695907593
 21
-0.483091801404953
  0
LINE
  8
0
 62
5
  6
CONTINUOUS
 10
-1.3285024166107178
 20
-2.5424447059631348
 11
-1.4090176820755005
 21
-2.622960090637207
  0
LINE
  8
0
 62
5
  6
CONTINUOUS
 10
-1.4090176820755005
 20
-2.6798930168151855
 11
-1.3285024166107178
 21
-2.5993776321411133
  0
LINE
  8
0
 62
5
  6
CONTINUOUS
 10
0.78778350353240967
 20
-0.483091801404953
 11
0.86829882860183716
 21
-0.40257647633552551
  0
LINE
  8
0
 62
5
  6
CONTINUOUS
 10
0.9252316951751709
 20
-0.40257647633552551
 11
0.84471642971038818
 21
-0.483091801404953
  0
LINE
  8
0
 62
5
  6
CONTINUOUS
 10
-1.3285024166107178
 20
-2.6563107967376709
 11
-1.4090176820755005
 21
-2.7368259429931641
  0
LINE
  8
0
 62
5
  6
CONTINUOUS
 10
-1.4090176820755005
 20
-2.7937588691711426
 11
-1.3285024166107178
 21
-2.7132437229156494
  0
LINE
  8
0
 62
5
  6
CONTINUOUS
 10
0.90164929628372192
 20
-0.483091801404953
 11
0.98216462135314941
 21
-0.40257647633552551
  0
LINE
  8
0
 62
5
  6
CONTINUOUS
 10
1.0390975475311279
 20
-0.40257647633552551
 11
0.95858228206634521
 21
-0.483091801404953
  0
LINE
  8
0
 62
5
  6
CONTINUOUS
 10
-1.3285024166107178
 20
-2.7701766490936279
 11
-1.4090176820755005
 21
-2.8506920337677002
  0
LINE
  8
0
 62
5
  6
CONTINUOUS
 10
-1.4090176820755005
 20
-2.9076247215270996
 11
-1.3285024166107178
 21
-2.8271093368530273
  0
LINE
  8
0
 62
5
  6
CONTINUOUS
 10
1.0155152082443237
 20
-0.483091801404953
 11
1.0960304737091064
 21
-0.40257647633552551
  0
LINE
  8
0
 62
5
  6
CONTINUOUS
 10
1.152963399887085
 20
-0.40257647633552551
 11
1.0724481344223022
 21
-0.483091801404953
  0
LINE
  8
0
 62
5
  6
CONTINUOUS
 10
-1.3285024166107178
 20
-2.8840422630310059
 11
-1.4090176820755005
 21
-2.9645576477050781
  0
LINE
  8
0
 62
5
  6
CONTINUOUS
 10
-1.4090176820755005
 20
-3.0214905738830566
 11
-1.3285024166107178
 21
-2.9409751892089844
  0
LINE
  8
0
 62
5
  6
CONTINUOUS
 10
1.1293809413909912
 20
-0.483091801404953
 11
1.2098963260650635
 21
-0.40257647633552551
  0
LINE
  8
0
 62
5
  6
CONTINUOUS
 10
1.2658368349075317
 20
-0.40356883406639099
 11
1.1863138675689697
 21
-0.483091801404953
  0
LINE
  8
0
 62
5
  6
CONTINUOUS
 10
-1.3285024166107178
 20
-2.9979081153869629
 11
-1.4090176820755005
 21
-3.0784235000610352
  0
LINE
  8
0
 62
5
  6
CONTINUOUS
 10
-1.4090176820755005
 20
-3.1353561878204346
 11
-1.3285024166107178
 21
-3.0548408031463623
  0
LINE
  8
0
 62
5
  6
CONTINUOUS
 10
1.2432467937469482
 20
-0.483091801404953
 11
1.3109447956085205
 21
-0.41539376974105835
  0
LINE
  8
0
 62
5
  6
CONTINUOUS
 10
1.346807599067688
 20
-0.43646395206451416
 11
1.2889692783355713
 21
-0.4943021833896637
  0
LINE
  8
0
 62
5
  6
CONTINUOUS
 10
-1.3285024166107178
 20
-3.1117739677429199
 11
-1.4090176820755005
 21
-3.1922891139984131
  0
LINE
  8
0
 62
5
  6
CONTINUOUS
 10
-1.4090176820755005
 20
-3.2492220401763916
 11
-1.3285024166107178
 21
-3.1687068939208984
  0
LINE
  8
0
 62
5
  6
CONTINUOUS
 10
1.3173986673355103
 20
-0.52280575037002563
 11
1.3752559423446655
 21
-0.46494850516319275
  0
LINE
  8
0
 62
5
  6
CONTINUOUS
 10
1.3962861299514771
 20
-0.5008513331413269
 11
1.3285024166107178
 21
-0.56863492727279663
  0
LINE
  8
0
 62
5
  6
CONTINUOUS
 10
-1.3285024166107178
 20
-3.225639820098877
 11
-1.4090176820755005
 21
-3.3061552047729492
  0
LINE
  8
0
 62
5
  6
CONTINUOUS
 10
-1.4090176820755005
 20
-3.3630881309509277
 11
-1.3285024166107178
 21
-3.2825727462768555
  0
LINE
  8
0
 62
5
  6
CONTINUOUS
 10
1.3285024166107178
 20
-0.62556785345077515
 11
1.4080541133880615
 21
-0.54601627588272095
  0
LINE
  8
0
 62
5
  6
CONTINUOUS
 10
1.4090176820755005
 20
-0.60198545455932617
 11
1.3285024166107178
 21
-0.68250077962875366
  0
LINE
  8
0
 62
5
  6
CONTINUOUS
 10
-1.3285024166107178
 20
-3.3395054340362549
 11
-1.4090176820755005
 21
-3.4200208187103271
  0
LINE
  8
0
 62
5
  6
CONTINUOUS
 10
-1.4090176820755005
 20
-3.4769537448883057
 11
-1.3285024166107178
 21
-3.3964383602142334
  0
LINE
  8
0
 62
5
  6
CONTINUOUS
 10
1.3285024166107178
 20
-0.73943370580673218
 11
1.4090176820755005
 21
-0.65891838073730469
  0
LINE
  8
0
 62
5
  6
CONTINUOUS
 10
1.4090176820755005
 20
-0.7158513069152832
 11
1.3285024166107178
 21
-0.79636657238006592
  0
LINE
  8
0
 62
5
  6
CONTINUOUS
 10
-1.3285024166107178
 20
-3.453371524810791
 11
-1.4090176820755005
 21
-3.5338866710662842
  0
LINE
  8
0
 62
5
  6
CONTINUOUS
 10
-1.4090176820755005
 20
-3.5908195972442627
 11
-1.3285024166107178
 21
-3.5103044509887695
  0
LINE
  8
0
 62
5
  6
CONTINUOUS
 10
1.3285024166107178
 20
-0.85329949855804443
 11
1.4090176820755005
 21
-0.77278417348861694
  0
LINE
  8
0
 62
5
  6
CONTINUOUS
 10
1.4090176820755005
 20
-0.82971709966659546
 11
1.3285024166107178
 21
-0.91023236513137817
  0
LINE
  8
0
 62
5
  6
CONTINUOUS
 10
-1.3285024166107178
 20
-3.567237377166748
 11
-1.4090176820755005
 21
-3.6477527618408203
  0
LINE
  8
0
 62
5
  6
CONTINUOUS
 10
-1.4047224521636963
 20
-3.7003903388977051
 11
-1.3285024166107178
 21
-3.6241700649261475
  0
LINE
  8
0
 62
5
  6
CONTINUOUS
 10
1.3285024166107178
 20
-0.96716535091400146
 11
1.4090176820755005
 21
-0.88665002584457397
  0
LINE
  8
0
 62
5
  6
CONTINUOUS
 10
1.4090176820755005
 20
-0.94358295202255249
 11
1.3285024166107178
 21
-1.02409827709198
  0
LINE
  8
0
 62
5
  6
CONTINUOUS
 10
-1.3268879652023315
 20
-3.6794886589050293
 11
-1.3888586759567261
 21
-3.7414593696594238
  0
LINE
  8
0
 62
5
  6
CONTINUOUS
 10
-1.3647770881652832
 20
-3.7743105888366699
 11
-1.3078055381774902
 21
-3.7173392772674561
  0
LINE
  8
0
 62
5
  6
CONTINUOUS
 10
1.3285024166107178
 20
-1.0810312032699585
 11
1.4090176820755005
 21
-1.0005158185958862
  0
LINE
  8
0
 62
5
  6
CONTINUOUS
 10
1.4090176820755005
 20
-1.0574487447738647
 11
1.3285024166107178
 21
-1.1379640102386475
  0
LINE
  8
0
 62
5
  6
CONTINUOUS
 10
-1.2733843326568604
 20
-3.7398507595062256
 11
-1.33345627784729
 21
-3.7999229431152344
  0
LINE
  8
0
 62
5
  6
CONTINUOUS
 10
-1.2942798137664795
 20
-3.8176789283752441
 11
-1.2205619812011719
 21
-3.7439613342285156
  0
LINE
  8
0
 62
5
  6
CONTINUOUS
 10
1.3285024166107178
 20
-1.194896936416626
 11
1.4090176820755005
 21
-1.1143816709518433
  0
LINE
  8
0
 62
5
  6
CONTINUOUS
 10
1.4090176820755005
 20
-1.1713145971298218
 11
1.3285024166107178
 21
-1.2518298625946045
  0
LINE
  8
0
 62
5
  6
CONTINUOUS
 10
-1.1636290550231934
 20
-3.7439613342285156
 11
-1.2441443204879761
 21
-3.8244767189025879
  0
LINE
  8
0
 62
5
  6
CONTINUOUS
 10
-1.1872113943099976
 20
-3.8244767189025879
 11
-1.1066961288452148
 21
-3.7439613342285156
  0
LINE
  8
0
 62
5
  6
CONTINUOUS
 10
1.3285024166107178
 20
-1.308762788772583
 11
1.4090176820755005
 21
-1.2282475233078003
  0
LINE
  8
0
 62
5
  6
CONTINUOUS
 10
1.4090176820755005
 20
-1.2851804494857788
 11
1.3285024166107178
 21
-1.3656957149505615
  0
LINE
  8
0
 62
5
  6
CONTINUOUS
 10
-1.0497632026672363
 20
-3.7439613342285156
 11
-1.130278468132019
 21
-3.8244767189025879
  0
LINE
  8
0
 62
5
  6
CONTINUOUS
 10
-1.0733456611633301
 20
-3.8244767189025879
 11
-0.99283033609390259
 21
-3.7439613342285156
  0
LINE
  8
0
 62
5
  6
CONTINUOUS
 10
-0.483091801404953
 20
-3.2342228889465332
 11
-0.46948090195655823
 21
-3.2206118106842041
  0
LINE
  8
0
 62
5
  6
CONTINUOUS
 10
1.3285024166107178
 20
-1.42262864112854
 11
1.4090176820755005
 21
-1.3421133756637573
  0
LINE
  8
0
 62
5
  6
CONTINUOUS
 10
1.4090176820755005
 20
-1.3990461826324463
 11
1.3285024166107178
 21
-1.4795615673065186
  0
LINE
  8
0
 62
5
  6
CONTINUOUS
 10
-0.41254794597625732
 20
-3.2206118106842041
 11
-0.483091801404953
 21
-3.2911558151245117
  0
LINE
  8
0
 62
5
  6
CONTINUOUS
 10
-0.93589740991592407
 20
-3.7439613342285156
 11
-1.0164127349853516
 21
-3.8244767189025879
  0
LINE
  8
0
 62
5
  6
CONTINUOUS
 10
-0.95947974920272827
 20
-3.8244767189025879
 11
-0.87896442413330078
 21
-3.7439613342285156
  0
LINE
  8
0
 62
5
  6
CONTINUOUS
 10
-0.483091801404953
 20
-3.3480885028839111
 11
-0.40257647633552551
 21
-3.2675731182098389
  0
LINE
  8
0
 62
5
  6
CONTINUOUS
 10
1.3285024166107178
 20
-1.5364944934844971
 11
1.4090176820755005
 21
-1.4559792280197144
  0
LINE
  8
0
 62
5
  6
CONTINUOUS
 10
1.4090176820755005
 20
-1.5129120349884033
 11
1.3285024166107178
 21
-1.593427300453186
  0
LINE
  8
0
 62
5
  6
CONTINUOUS
 10
-0.40257647633552551
 20
-3.3245062828063965
 11
-0.483091801404953
 21
-3.4050214290618896
  0
LINE
  8
0
 62
5
  6
CONTINUOUS
 10
-0.82203155755996704
 20
-3.7439613342285156
 11
-0.90254688262939453
 21
-3.8244767189025879
  0
LINE
  8
0
 62
5
  6
CONTINUOUS
 10
-0.84561395645141602
 20
-3.8244767189025879
 11
-0.76509863138198853
 21
-3.7439613342285156
  0
LINE
  8
0
 62
5
  6
CONTINUOUS
 10
-0.483091801404953
 20
-3.4619545936584473
 11
-0.40257647633552551
 21
-3.381439208984375
  0
LINE
  8
0
 62
5
  6
CONTINUOUS
 10
1.3285024166107178
 20
-1.6503602266311646
 11
1.4090176820755005
 21
-1.5698449611663818
  0
LINE
  8
0
 62
5
  6
CONTINUOUS
 10
1.4090176820755005
 20
-1.6267780065536499
 11
1.3285024166107178
 21
-1.7072932720184326
  0
LINE
  8
0
 62
5
  6
CONTINUOUS
 10
-0.40257647633552551
 20
-3.4383721351623535
 11
-0.483091801404953
 21
-3.5188875198364258
  0
LINE
  8
0
 62
5
  6
CONTINUOUS
 10
-0.70816576480865479
 20
-3.7439613342285156
 11
-0.7886810302734375
 21
-3.8244767189025879
  0
LINE
  8
0
 62
5
  6
CONTINUOUS
 10
-0.73174816370010376
 20
-3.8244767189025879
 11
-0.65123283863067627
 21
-3.7439613342285156
  0
LINE
  8
0
 62
5
  6
CONTINUOUS
 10
-0.483091801404953
 20
-3.5758204460144043
 11
-0.40257647633552551
 21
-3.495305061340332
  0
LINE
  8
0
 62
5
  6
CONTINUOUS
 10
1.3285024166107178
 20
-1.7642260789871216
 11
1.4090176820755005
 21
-1.6837108135223389
  0
LINE
  8
0
 62
5
  6
CONTINUOUS
 10
1.4090176820755005
 20
-1.7406437397003174
 11
1.3285024166107178
 21
-1.8211590051651001
  0
LINE
  8
0
 62
5
  6
CONTINUOUS
 10
-0.40257647633552551
 20
-3.5522377490997314
 11
-0.483091801404953
 21
-3.6327531337738037
  0
LINE
  8
0
 62
5
  6
CONTINUOUS
 10
-0.59429991245269775
 20
-3.7439613342285156
 11
-0.67481517791748047
 21
-3.8244767189025879
  0
LINE
  8
0
 62
5
  6
CONTINUOUS
 10
-0.61788231134414673
 20
-3.8244767189025879
 11
-0.5300329327583313
 21
-3.7366271018981934
  0
LINE
  8
0
 62
5
  6
CONTINUOUS
 10
-0.49042591452598572
 20
-3.6970202922821045
 11
-0.40257647633552551
 21
-3.60917067527771
  0
LINE
  8
0
 62
5
  6
CONTINUOUS
 10
1.3285024166107178
 20
-1.8780918121337891
 11
1.4090176820755005
 21
-1.7975765466690063
  0
LINE
  8
0
 62
5
  6
CONTINUOUS
 10
1.4090176820755005
 20
-1.8545095920562744
 11
1.3285024166107178
 21
-1.9350248575210571
  0
LINE
  8
0
 62
5
  6
CONTINUOUS
 10
-0.4025987982749939
 20
-3.6661262512207031
 11
-0.56092709302902222
 21
-3.8244543075561523
  0
LINE
  8
0
 62
5
  6
CONTINUOUS
 10
-0.48152762651443481
 20
-3.8019876480102539
 11
-0.42506533861160278
 21
-3.745525598526001
  0
LINE
  8
0
 62
5
  6
CONTINUOUS
 10
1.3285024166107178
 20
-1.9919577836990356
 11
1.4090176820755005
 21
-1.9114425182342529
  0
LINE
  8
0
 62
5
  6
CONTINUOUS
 10
1.4090176820755005
 20
-1.9683753252029419
 11
1.3285024166107178
 21
-2.0488905906677246
  0
LINE
  8
0
 62
5
  6
CONTINUOUS
 10
1.3285024166107178
 20
-2.1058235168457031
 11
1.4090176820755005
 21
-2.02530837059021
  0
LINE
  8
0
 62
5
  6
CONTINUOUS
 10
1.4090176820755005
 20
-2.0822410583496094
 11
1.3285024166107178
 21
-2.1627564430236816
  0
LINE
  8
0
 62
5
  6
CONTINUOUS
 10
1.3285024166107178
 20
-2.2196893692016602
 11
1.4090176820755005
 21
-2.139174222946167
  0
LINE
  8
0
 62
5
  6
CONTINUOUS
 10
1.4090176820755005
 20
-2.1961071491241455
 11
1.3285024166107178
 21
-2.2766222953796387
  0
LINE
  8
0
 62
5
  6
CONTINUOUS
 10
0.40257647633552551
 20
-3.2594811916351318
 11
0.4414457380771637
 21
-3.2206118106842041
  0
LINE
  8
0
 62
5
  6
CONTINUOUS
 10
1.3285024166107178
 20
-2.3335552215576172
 11
1.4090176820755005
 21
-2.2530398368835449
  0
LINE
  8
0
 62
5
  6
CONTINUOUS
 10
1.4090176820755005
 20
-2.3099730014801025
 11
1.3285024166107178
 21
-2.3904881477355957
  0
LINE
  8
0
 62
5
  6
CONTINUOUS
 10
0.483091801404953
 20
-3.2358987331390381
 11
0.40257647633552551
 21
-3.3164138793945312
  0
LINE
  8
0
 62
5
  6
CONTINUOUS
 10
0.40257647633552551
 20
-3.3733470439910889
 11
0.483091801404953
 21
-3.2928316593170166
  0
LINE
  8
0
 62
5
  6
CONTINUOUS
 10
1.3285024166107178
 20
-2.4474210739135742
 11
1.4090176820755005
 21
-2.366905689239502
  0
LINE
  8
0
 62
5
  6
CONTINUOUS
 10
1.4090176820755005
 20
-2.4238386154174805
 11
1.3285024166107178
 21
-2.5043540000915527
  0
LINE
  8
0
 62
5
  6
CONTINUOUS
 10
0.483091801404953
 20
-3.3497645854949951
 11
0.40257647633552551
 21
-3.4302799701690674
  0
LINE
  8
0
 62
5
  6
CONTINUOUS
 10
0.40257647633552551
 20
-3.4872128963470459
 11
0.483091801404953
 21
-3.4066975116729736
  0
LINE
  8
0
 62
5
  6
CONTINUOUS
 10
1.3285024166107178
 20
-2.5612869262695313
 11
1.4090176820755005
 21
-2.480771541595459
  0
LINE
  8
0
 62
5
  6
CONTINUOUS
 10
1.4090176820755005
 20
-2.5377044677734375
 11
1.3285024166107178
 21
-2.6182196140289307
  0
LINE
  8
0
 62
5
  6
CONTINUOUS
 10
0.483091801404953
 20
-3.4636304378509521
 11
0.40257647633552551
 21
-3.5441458225250244
  0
LINE
  8
0
 62
5
  6
CONTINUOUS
 10
0.40257647633552551
 20
-3.6010785102844238
 11
0.483091801404953
 21
-3.5205631256103516
  0
LINE
  8
0
 62
5
  6
CONTINUOUS
 10
1.3285024166107178
 20
-2.6751525402069092
 11
1.4090176820755005
 21
-2.594637393951416
  0
LINE
  8
0
 62
5
  6
CONTINUOUS
 10
1.4090176820755005
 20
-2.6515703201293945
 11
1.3285024166107178
 21
-2.7320854663848877
  0
LINE
  8
0
 62
5
  6
CONTINUOUS
 10
0.483091801404953
 20
-3.5774962902069092
 11
0.40257647633552551
 21
-3.6580114364624023
  0
LINE
  8
0
 62
5
  6
CONTINUOUS
 10
0.40901064872741699
 20
-3.7085103988647461
 11
0.483091801404953
 21
-3.6344292163848877
  0
LINE
  8
0
 62
5
  6
CONTINUOUS
 10
1.3285024166107178
 20
-2.7890186309814453
 11
1.4090176820755005
 21
-2.708503246307373
  0
LINE
  8
0
 62
5
  6
CONTINUOUS
 10
1.4090176820755005
 20
-2.7654361724853516
 11
1.3285024166107178
 21
-2.8459515571594238
  0
LINE
  8
0
 62
5
  6
CONTINUOUS
 10
0.48681303858757019
 20
-3.687640905380249
 11
0.42652046680450439
 21
-3.7479333877563477
  0
LINE
  8
0
 62
5
  6
CONTINUOUS
 10
0.45192870497703552
 20
-3.7794580459594727
 11
0.50888222455978394
 21
-3.7225043773651123
  0
LINE
  8
0
 62
5
  6
CONTINUOUS
 10
1.3285024166107178
 20
-2.9028844833374023
 11
1.4090176820755005
 21
-2.8223690986633301
  0
LINE
  8
0
 62
5
  6
CONTINUOUS
 10
1.4090176820755005
 20
-2.8793022632598877
 11
1.3285024166107178
 21
-2.9598174095153809
  0
LINE
  8
0
 62
5
  6
CONTINUOUS
 10
0.54625123739242554
 20
-3.7420685291290283
 11
0.48457255959510803
 21
-3.8037469387054443
  0
LINE
  8
0
 62
5
  6
CONTINUOUS
 10
0.52537930011749268
 20
-3.8198733329772949
 11
0.60129129886627197
 21
-3.7439613342285156
  0
LINE
  8
0
 62
5
  6
CONTINUOUS
 10
1.3285024166107178
 20
-3.0167500972747803
 11
1.4090176820755005
 21
-2.9362349510192871
  0
LINE
  8
0
 62
5
  6
CONTINUOUS
 10
1.4090176820755005
 20
-2.9931678771972656
 11
1.3285024166107178
 21
-3.0736830234527588
  0
LINE
  8
0
 62
5
  6
CONTINUOUS
 10
0.65822416543960571
 20
-3.7439613342285156
 11
0.577708899974823
 21
-3.8244767189025879
  0
LINE
  8
0
 62
5
  6
CONTINUOUS
 10
0.63464176654815674
 20
-3.8244767189025879
 11
0.71515709161758423
 21
-3.7439613342285156
  0
LINE
  8
0
 62
5
  6
CONTINUOUS
 10
1.3285024166107178
 20
-3.1306161880493164
 11
1.4090176820755005
 21
-3.0501008033752441
  0
LINE
  8
0
 62
5
  6
CONTINUOUS
 10
1.4090176820755005
 20
-3.1070337295532227
 11
1.3285024166107178
 21
-3.1875491142272949
  0
LINE
  8
0
 62
5
  6
CONTINUOUS
 10
0.77208995819091797
 20
-3.7439613342285156
 11
0.69157469272613525
 21
-3.8244767189025879
  0
LINE
  8
0
 62
5
  6
CONTINUOUS
 10
0.74850761890411377
 20
-3.8244767189025879
 11
0.82902294397354126
 21
-3.7439613342285156
  0
LINE
  8
0
 62
5
  6
CONTINUOUS
 10
1.3285024166107178
 20
-3.2444818019866943
 11
1.4090176820755005
 21
-3.1639664173126221
  0
LINE
  8
0
 62
5
  6
CONTINUOUS
 10
1.4090176820755005
 20
-3.2208993434906006
 11
1.3285024166107178
 21
-3.3014147281646729
  0
LINE
  8
0
 62
5
  6
CONTINUOUS
 10
0.885955810546875
 20
-3.7439613342285156
 11
0.80544054508209229
 21
-3.8244767189025879
  0
LINE
  8
0
 62
5
  6
CONTINUOUS
 10
0.86237341165542603
 20
-3.8244767189025879
 11
0.94288873672485352
 21
-3.7439613342285156
  0
LINE
  8
0
 62
5
  6
CONTINUOUS
 10
1.3285024166107178
 20
-3.3583476543426514
 11
1.4090176820755005
 21
-3.2778322696685791
  0
LINE
  8
0
 62
5
  6
CONTINUOUS
 10
1.4090176820755005
 20
-3.3347654342651367
 11
1.3285024166107178
 21
-3.4152805805206299
  0
LINE
  8
0
 62
5
  6
CONTINUOUS
 10
0.99982166290283203
 20
-3.7439613342285156
 11
0.91930633783340454
 21
-3.8244767189025879
  0
LINE
  8
0
 62
5
  6
CONTINUOUS
 10
0.97623920440673828
 20
-3.8244767189025879
 11
1.0567545890808105
 21
-3.7439613342285156
  0
LINE
  8
0
 62
5
  6
CONTINUOUS
 10
1.3285024166107178
 20
-3.4722135066986084
 11
1.4090176820755005
 21
-3.3916983604431152
  0
LINE
  8
0
 62
5
  6
CONTINUOUS
 10
1.4090176820755005
 20
-3.4486310482025146
 11
1.3285024166107178
 21
-3.5291461944580078
  0
LINE
  8
0
 62
5
  6
CONTINUOUS
 10
1.1136875152587891
 20
-3.7439613342285156
 11
1.0331722497940063
 21
-3.8244767189025879
  0
LINE
  8
0
 62
5
  6
CONTINUOUS
 10
1.0901050567626953
 20
-3.8244767189025879
 11
1.1706204414367676
 21
-3.7439613342285156
  0
LINE
  8
0
 62
5
  6
CONTINUOUS
 10
1.3285024166107178
 20
-3.5860793590545654
 11
1.4090176820755005
 21
-3.5055639743804932
  0
LINE
  8
0
 62
5
  6
CONTINUOUS
 10
1.4090176820755005
 20
-3.5624969005584717
 11
1.3285024166107178
 21
-3.6430122852325439
  0
LINE
  8
0
 62
5
  6
CONTINUOUS
 10
1.2275532484054565
 20
-3.7439613342285156
 11
1.1470379829406738
 21
-3.8244767189025879
  0
LINE
  8
0
 62
5
  6
CONTINUOUS
 10
1.2039709091186523
 20
-3.8244767189025879
 11
1.4090176820755005
 21
-3.6194298267364502
  0
LINE
  8
0
 62
5
  6
CONTINUOUS
 10
1.4084522724151611
 20
-3.6769280433654785
 11
1.2614692449569702
 21
-3.823911190032959
  0
ENDBLK
  0
BLOCK
  8
0
 62
50
  6
CONTINUOUS
  2
TELL_6
 70
0
 10
-1.2859092518358628e-089
 20
-0.40257648953301112
  0
LINE
  8
0
 62
50
  6
CONTINUOUS
 10
-1.3285024154589367
 20
-0.56360708534621562
 11
-1.3285024154589367
 21
-3.6634460547504011
  0
LINE
  8
0
 62
50
  6
CONTINUOUS
 10
-1.2479871175523345
 20
-3.7439613526570032
 11
-0.56360708534621562
 21
-3.7439613526570032
  0
LINE
  8
0
 62
50
  6
CONTINUOUS
 10
-0.48309178743961334
 20
-3.6634460547504011
 11
-0.48309178743961334
 21
-3.2206119162640889
  0
LINE
  8
0
 62
50
  6
CONTINUOUS
 10
-0.48309178743961334
 20
-3.2206119162640889
 11
-0.40257648953301112
 21
-3.2206119162640889
  0
LINE
  8
0
 62
50
  6
CONTINUOUS
 10
-0.40257648953301112
 20
-3.2206119162640889
 11
-0.40257648953301112
 21
-3.6634460547504011
  0
LINE
  8
0
 62
50
  6
CONTINUOUS
 10
-0.56360708534621562
 20
-3.8244766505636054
 11
-1.2479871175523345
 21
-3.8244766505636054
  0
LINE
  8
0
 62
50
  6
CONTINUOUS
 10
-1.4090177133655388
 20
-3.6634460547504011
 11
-1.4090177133655388
 21
-0.56360708534621562
  0
LINE
  8
0
 62
50
  6
CONTINUOUS
 10
-1.2479871175523345
 20
-0.40257648953301112
 11
1.2479871175523345
 21
-0.40257648953301112
  0
LINE
  8
0
 62
50
  6
CONTINUOUS
 10
1.4090177133655388
 20
-0.56360708534621562
 11
1.4090177133655388
 21
-3.6634460547504011
  0
LINE
  8
0
 62
50
  6
CONTINUOUS
 10
1.2479871175523345
 20
-3.8244766505636054
 11
0.56360708534621562
 21
-3.8244766505636054
  0
LINE
  8
0
 62
50
  6
CONTINUOUS
 10
0.40257648953301112
 20
-3.6634460547504011
 11
0.40257648953301112
 21
-3.2206119162640889
  0
LINE
  8
0
 62
50
  6
CONTINUOUS
 10
0.40257648953301112
 20
-3.2206119162640889
 11
0.48309178743961334
 21
-3.2206119162640889
  0
LINE
  8
0
 62
50
  6
CONTINUOUS
 10
0.48309178743961334
 20
-3.2206119162640889
 11
0.48309178743961334
 21
-3.6634460547504011
  0
LINE
  8
0
 62
50
  6
CONTINUOUS
 10
0.56360708534621562
 20
-3.7439613526570032
 11
1.2479871175523345
 21
-3.7439613526570032
  0
LINE
  8
0
 62
50
  6
CONTINUOUS
 10
1.3285024154589367
 20
-3.6634460547504011
 11
1.3285024154589367
 21
-0.56360708534621562
  0
LINE
  8
0
 62
50
  6
CONTINUOUS
 10
1.2479871175523345
 20
-0.48309178743961334
 11
-1.2479871175523345
 21
-0.48309178743961334
  0
ARC
  8
0
 62
50
  6
CONTINUOUS
 10
-1.2479871175523347
 20
-3.6634460547504011
 40
0.080515297906602223
 50
180
 51
270
  0
ARC
  8
0
 62
50
  6
CONTINUOUS
 10
-0.56360708534621562
 20
-3.6634460547504011
 40
0.080515297906602223
 50
270
 51
0
  0
ARC
  8
0
 62
50
  6
CONTINUOUS
 10
-1.2479871175523347
 20
-0.56360708534621562
 40
0.080515297906602223
 50
90
 51
180
  0
ARC
  8
0
 62
50
  6
CONTINUOUS
 10
1.2479871175523347
 20
-0.56360708534621562
 40
0.080515297906602223
 50
0
 51
90
  0
ARC
  8
0
 62
50
  6
CONTINUOUS
 10
1.2479871175523347
 20
-3.6634460547504011
 40
0.080515297906602223
 50
270
 51
0
  0
ARC
  8
0
 62
50
  6
CONTINUOUS
 10
0.56360708534621562
 20
-3.6634460547504011
 40
0.080515297906602223
 50
180
 51
270
  0
ARC
  8
0
 62
50
  6
CONTINUOUS
 10
0.56360708534621562
 20
-3.6634460547504011
 40
0.16103059581320445
 50
180
 51
270
  0
ARC
  8
0
 62
50
  6
CONTINUOUS
 10
-0.56360708534621562
 20
-3.6634460547504011
 40
0.16103059581320445
 50
270
 51
0
  0
ARC
  8
0
 62
50
  6
CONTINUOUS
 10
-1.2479871175523345
 20
-3.6634460547504011
 40
0.16103059581320445
 50
180
 51
270
  0
ARC
  8
0
 62
50
  6
CONTINUOUS
 10
-1.2479871175523345
 20
-0.56360708534621562
 40
0.16103059581320445
 50
90
 51
180
  0
ARC
  8
0
 62
50
  6
CONTINUOUS
 10
1.2479871175523345
 20
-0.56360708534621562
 40
0.16103059581320445
 50
0
 51
90
  0
ARC
  8
0
 62
50
  6
CONTINUOUS
 10
1.2479871175523345
 20
-3.6634460547504011
 40
0.16103059581320445
 50
270
 51
0
  0
INSERT
  8
0
 62
5
  6
CONTINUOUS
  2
TELL_7
 10
1.4090177133655388
 20
-3.2327635357288496
 41
1.0
 42
1.0
 50
0.0
  0
ENDBLK
  0
BLOCK
  8
0
 62
50
  6
CONTINUOUS
  2
TELL_8
 70
0
 10
-8.5936590865550878e-090
 20
-3.8244766505636054
  0
LINE
  8
0
 62
50
  6
CONTINUOUS
 10
-1.1674718196457323
 20
-3.7439613526570032
 11
-0.64412238325281779
 21
-3.7439613526570032
  0
LINE
  8
0
 62
50
  6
CONTINUOUS
 10
-0.58373590982286616
 20
-3.6835748792270517
 11
-0.58373590982286616
 21
-0.90579710144927505
  0
LINE
  8
0
 62
50
  6
CONTINUOUS
 10
-0.64412238325281779
 20
-0.84541062801932332
 11
-1.1674718196457323
 21
-0.84541062801932332
  0
LINE
  8
0
 62
50
  6
CONTINUOUS
 10
-1.2278582930756838
 20
-0.90579710144927505
 11
-1.2278582930756838
 21
-3.6835748792270517
  0
ARC
  8
0
 62
50
  6
CONTINUOUS
 10
-1.1674718196457323
 20
-3.6835748792270517
 40
0.060386473429951668
 50
180
 51
270
  0
ARC
  8
0
 62
50
  6
CONTINUOUS
 10
-0.64412238325281779
 20
-3.6835748792270517
 40
0.060386473429951668
 50
270
 51
0
  0
ARC
  8
0
 62
50
  6
CONTINUOUS
 10
-1.1674718196457323
 20
-0.90579710144927505
 40
0.060386473429951668
 50
90
 51
180
  0
ARC
  8
0
 62
50
  6
CONTINUOUS
 10
-0.64412238325281779
 20
-0.90579710144927505
 40
0.060386473429951668
 50
0
 51
90
  0
LINE
  8
0
 62
50
  6
CONTINUOUS
 10
-0.58373590982286616
 20
-3.0394524959742339
 11
-0.20128824476650556
 21
-3.0394524959742339
  0
LINE
  8
0
 62
50
  6
CONTINUOUS
 10
-0.58373590982286616
 20
-1.5499194847020927
 11
-0.20128824476650556
 21
-1.5499194847020927
  0
LINE
  8
0
 62
5
  6
CONTINUOUS
 10
-1.1674718196457323
 20
-3.6835748792270517
 11
-1.1674718196457323
 21
-0.90579710144927505
  0
LINE
  8
0
 62
5
  6
CONTINUOUS
 10
-0.64412238325281768
 20
-3.6835748792270517
 11
-0.64412238325281768
 21
-0.90579710144927505
  0
ENDBLK
  0
BLOCK
  8
0
 62
50
  6
CONTINUOUS
  2
TELL_9
 70
0
 10
-1.7498587644938991e-090
 20
-3.8244766505636054
  0
LINE
  8
0
 62
50
  6
CONTINUOUS
 10
0.64412238325279492
 20
-0.84541062801931821
 11
1.1674718196457095
 21
-0.84541062801931188
  0
LINE
  8
0
 62
50
  6
CONTINUOUS
 10
1.227858293075661
 20
-0.90579710144926362
 11
1.2278582930756725
 21
-2.2946859903381545
  0
ARC
  8
0
 62
50
  6
CONTINUOUS
 10
1.1674718196457095
 20
-0.90579710144926362
 40
0.060386473429951668
 50
0
 51
90
  0
ARC
  8
0
 62
50
  6
CONTINUOUS
 10
0.64412238325279558
 20
-0.90579710144926984
 40
0.060386473429951668
 50
90
 51
180
  0
LINE
  8
0
 62
50
  6
CONTINUOUS
 10
0.58373590982284895
 20
-1.5499194847020876
 11
0.20128824476648804
 21
-1.5499194847020925
  0
LINE
  8
0
 62
5
  6
CONTINUOUS
 10
1.167471819645721
 20
-2.2946859903381545
 11
1.1674718196457095
 21
-0.90579710144926362
  0
LINE
  8
0
 62
5
  6
CONTINUOUS
 10
0.64412238325280624
 20
-2.294685990338158
 11
0.64412238325279547
 21
-0.90579710144926984
  0
LINE
  8
0
 62
50
  6
CONTINUOUS
 10
0.58373590982285473
 20
-2.294685990338158
 11
0.58373590982284396
 21
-0.90579710144926984
  0
ENDBLK
  0
BLOCK
  8
0
 62
50
  6
CONTINUOUS
  2
TELL_11
 70
0
 10
-7.859753006080047e-090
 20
-3.2206119162640889
  0
LINE
  8
0
 62
50
  6
CONTINUOUS
 10
-1.2546805423124066e-090
 20
-2.8582930756843776
 11
0.60740076745843086
 21
-2.858293075684379
  0
LINE
  8
0
 62
50
  6
CONTINUOUS
 10
0.60740076745843086
 20
-2.858293075684379
 11
0.72326593503505854
 21
-3.2907077679111785
  0
ARC
  8
0
 62
50
  6
CONTINUOUS
 10
0.68438003220611887
 20
-3.3011272141706911
 40
0.040257648953301112
 50
195.00000000002439
 51
14.999999999372367
  0
LINE
  8
0
 62
50
  6
CONTINUOUS
 10
0.6454941293748333
 20
-3.3115466604313069
 11
0.62112823811301854
 21
-3.2206119162640889
  0
LINE
  8
0
 62
50
  6
CONTINUOUS
 10
0.62112823811301854
 20
-3.2206119162640889
 11
-8.9236170173269414e-091
 21
-3.2206119162640889
  0
ENDBLK
  0
BLOCK
  8
0
 62
5
  6
DASHDOT
  2
TELL_10
 70
0
 10
4.4024544253623173e-016
 20
-4.0257648953301111
  0
LINE
  8
0
 62
50
  6
CONTINUOUS
 10
1.6505636070853416
 20
-3.0998389694041775
 11
1.6505636070853436
 21
-3.6231884057970922
  0
ARC
  8
0
 62
50
  6
CONTINUOUS
 10
1.2479871175523334
 20
-3.6231884057970922
 40
0.40257648953301095
 50
270
 51
0
  0
LINE
  8
0
 62
50
  6
CONTINUOUS
 10
1.2479871175523354
 20
-4.0257648953301031
 11
0.36231884057971087
 21
-4.0257648953301102
  0
LINE
  8
0
 62
50
  6
CONTINUOUS
 10
-0.36231884057970914
 20
-4.0257648953301102
 11
-1.2479871175523334
 21
-4.0257648953301191
  0
ARC
  8
0
 62
50
  6
CONTINUOUS
 10
-1.2479871175523354
 20
-3.6231884057971082
 40
0.40257648953301095
 50
180
 51
270
  0
LINE
  8
0
 62
50
  6
CONTINUOUS
 10
-1.6505636070853476
 20
-3.6231884057971082
 11
-1.6505636070853495
 21
-3.0998389694041935
  0
LINE
  8
0
 62
50
  6
CONTINUOUS
 10
-1.6505636070853495
 20
-3.0998389694041935
 11
-1.4492753623188441
 21
-3.0998389694041935
  0
LINE
  8
0
 62
50
  6
CONTINUOUS
 10
-1.4492753623188441
 20
-3.0998389694041935
 11
-1.4492753623188421
 21
-3.6231884057971082
  0
ARC
  8
0
 62
50
  6
CONTINUOUS
 10
-1.2479871175523354
 20
-3.6231884057971082
 40
0.20128824476650556
 50
180
 51
270
  0
LINE
  8
0
 62
50
  6
CONTINUOUS
 10
-1.2479871175523345
 20
-3.8244766505636134
 11
-0.36231884057970998
 21
-3.8244766505636067
  0
LINE
  8
0
 62
50
  6
CONTINUOUS
 10
-3.5494390837749952e-090
 20
-3.8244766505636067
 11
1.2479871175523345
 21
-3.8244766505635974
  0
ARC
  8
0
 62
50
  6
CONTINUOUS
 10
1.2479871175523334
 20
-3.6231884057970922
 40
0.20128824476650556
 50
270
 51
0
  0
LINE
  8
0
 62
50
  6
CONTINUOUS
 10
1.4492753623188379
 20
-3.6231884057970922
 11
1.4492753623188359
 21
-3.0998389694041775
  0
LINE
  8
0
 62
50
  6
CONTINUOUS
 10
1.4492753623188359
 20
-3.0998389694041775
 11
1.6505636070853416
 21
-3.0998389694041775
  0
INSERT
  8
0
 62
50
  6
CONTINUOUS
  2
TELL_11
 10
-7.859753006080047e-090
 20
-3.2206119162640889
 41
1.0
 42
1.0
 50
0.0
  0
LINE
  8
0
 62
50
  6
CONTINUOUS
 10
3.584434512463646e-091
 20
-4.4714170692431487
 11
0.19832930756843781
 21
-4.4714170692431487
  0
LINE
  8
0
 62
50
  6
CONTINUOUS
 10
0.19832930756843781
 20
-4.4714170692431487
 11
0.24154589371980667
 21
-4.4282004830917803
  0
LINE
  8
0
 62
50
  6
CONTINUOUS
 10
0.013277666963612947
 20
-4.4282004830917803
 11
0.24154589371980667
 21
-4.4282004830917803
  0
ARC
  8
0
 62
50
  6
CONTINUOUS
 10
6.7992221264533767e-016
 20
-4.6514358561459996
 40
0.62567096081588836
 50
69.334521817119878
 51
90
  0
ARC
  8
0
 62
50
  6
CONTINUOUS
 10
0.33120939355685119
 20
-4.1972792538915717
 40
0.17151435856146
 50
49.93201295031821
 51
130.06798704944404
  0
LINE
  8
0
 62
50
  6
CONTINUOUS
 10
0.44161252474235158
 20
-4.0660225442846558
 11
0.44161252474235158
 21
-4.3880837359085776
  0
ARC
  8
0
 62
50
  6
CONTINUOUS
 10
0.33120939355685119
 20
-4.2568270263016625
 40
0.17151435856146
 50
229.93201295055596
 51
310.06798704968179
  0
ARC
  8
0
 62
50
  6
CONTINUOUS
 10
6.7992221264533767e-016
 20
-3.8026704240472338
 40
0.62567096081588836
 50
270
 51
290.66547818288012
  0
LINE
  8
0
 62
50
  6
CONTINUOUS
 10
1.1207263422896856e-015
 20
-4.4283413848631223
 11
0.33120939355877677
 21
-4.4283413848631223
  0
LINE
  8
0
 62
50
  6
CONTINUOUS
 10
3.8311290365169558e-017
 20
-4.0257648953301111
 11
0.33120939355877677
 21
-4.0257648953301111
  0
LINE
  8
0
 62
50
  6
CONTINUOUS
 10
0.22080626237117609
 20
-4.3880837359085012
 11
0.22080626237117615
 21
-4.0660225442847322
  0
LINE
  8
0
 62
50
  6
CONTINUOUS
 10
0.24154589371980667
 20
-4.4282004830917803
 11
0.24154589371980734
 21
-4.4283413848631223
  0
LINE
  8
0
 62
50
  6
CONTINUOUS
 10
0.24154589371980667
 20
-3.2206119162640889
 11
0.24154589371980667
 21
-3.8244766505636067
  0
LINE
  8
0
 62
5
  6
CONTINUOUS
 10
0.19832930756843792
 20
-4.4714170692431487
 11
0.19832930756843861
 21
-4.4283413848631223
  0
LINE
  8
0
 62
5
  6
CONTINUOUS
 10
0.19832930756843861
 20
-3.8244766505636067
 11
0.19832930756843792
 21
-3.2206119162640889
  0
LINE
  8
0
 62
5
  6
DASHDOT
 10
-8.1002196563919265e-090
 20
-4.6324476650563531
 11
-8.1002196563919265e-090
 21
-2.6972624798711733
  0
ENDBLK
  0
BLOCK
  8
0
 62
5
  6
HIDDEN
  2
7_40_CS20
 70
0
 10
0
 20
0
  0
INSERT
  8
0
 62
50
  6
CONTINUOUS
  2
TELL_6
 10
-1.2859092518358628e-089
 20
-0.40257648953301112
 41
1.0
 42
1.0
 50
0.0
  0
INSERT
  8
0
 62
50
  6
CONTINUOUS
  2
TELL_8
 10
-8.5936590865550878e-090
 20
-3.8244766505636054
 41
1.0
 42
1.0
 50
0.0
  0
INSERT
  8
0
 62
50
  6
CONTINUOUS
  2
TELL_9
 10
-1.7498587644938991e-090
 20
-3.8244766505636054
 41
1.0
 42
1.0
 50
0.0
  0
LINE
  8
0
 62
5
  6
DASHDOT
 10
-1.2781803542673105
 20
-2.2946859903381633
 11
1.2781803542673105
 21
-2.2946859903381633
  0
LINE
  8
0
 62
50
  6
CONTINUOUS
 10
-0.20128824476650556
 20
-12.479871175523344
 11
0.20128824476650556
 21
-12.479871175523344
  0
LINE
  8
0
 62
50
  6
CONTINUOUS
 10
0.20128824476650556
 20
-12.479871175523344
 11
0.20128824476650556
 21
-4.6324476650563531
  0
LINE
  8
0
 62
50
  6
CONTINUOUS
 10
0.20128824476650556
 20
-2.6972624798711733
 11
0.20128824476650556
 21
-0.88566827697262451
  0
LINE
  8
0
 62
50
  6
CONTINUOUS
 10
0.20128824476650556
 20
-0.88566827697262451
 11
-0.20128824476650556
 21
-0.88566827697262451
  0
LINE
  8
0
 62
50
  6
CONTINUOUS
 10
-0.20128824476650556
 20
-0.88566827697262451
 11
-0.20128824476650556
 21
-12.479871175523344
  0
INSERT
  8
0
 62
5
  6
DASHDOT
  2
TELL_10
 10
4.4024544253623173e-016
 20
-4.0257648953301111
 41
1.0
 42
1.0
 50
0.0
  0
POLYLINE
  8
0
 62
50
  6
CONTINUOUS
 66
1
 70
1
  0
VERTEX
  8
0
 62
50
  6
CONTINUOUS
 10
-4.2270531400966167
 20
-0.40257648953301112
  0
VERTEX
  8
0
 62
50
  6
CONTINUOUS
 10
4.2270531400966167
 20
-0.40257648953301112
  0
VERTEX
  8
0
 62
50
  6
CONTINUOUS
 10
4.2270531400966167
 20
0
  0
VERTEX
  8
0
 62
50
  6
CONTINUOUS
 10
-4.2270531400966167
 20
0
  0
SEQEND
  0
LINE
  8
0
 62
5
  6
DASHDOT
 10
-3.2206119162640889
 20
-0.6038647342995167
 11
-3.2206119162640889
 21
0.20128824476650556
  0
LINE
  8
0
 62
5
  6
DASHDOT
 10
3.2206119162640889
 20
-0.6038647342995167
 11
3.2206119162640889
 21
0.20128824476650556
  0
ENDBLK
  0
ENDSEC
  0
SECTION
  2
ENTITIES
  0
INSERT
  8
0
 62
5
  6
HIDDEN
  2
TELL_1
 10
-14.734299516908209
 20
0
 41
1.0
 42
1.0
 50
0.0
  0
INSERT
  8
0
 62
5
  6
HIDDEN
  2
7_40_CS20
 10
0
 20
0
 41
1.0
 42
1.0
 50
0.0
  0
ENDSEC
  0
EOF
