  0
SECTION
  2
HEADER
  9
$ACADVER
  1
AC1009
  9
$EXTMIN
 10
-16.391509433962263
 20
-3.8976035139386789
  9
$EXTMAX
 10
8.6084905660377355
 20
14.095725743349057
  9
$TEXTSTYLE
  7
STANDARD
  9
$DIMLFAC
 40
1
  9
$REGENMODE
 70
1
  9
$DRAGMODE
 70
2
  9
$DIMASO
 70
1
  9
$LTSCALE
 40
1.0000000000
  0
ENDSEC
  0
SECTION
  2
TABLES
  0
TABLE
  2
LTYPE
 70
3
  0
LTYPE
  2
CONTINUOUS
 70
64
  3
CONTINUOUS
 72
65
 73
0
 40
0.0000000000
  0
LTYPE
  2
HIDDEN
 70
64
  3
HIDDEN
 72
65
 73
2
 40
0.5000000000
 49
0.2500000000
 49
-0.2500000000
  0
LTYPE
  2
DASHDOT
 70
64
  3
DASHDOT
 72
65
 73
4
 40
1.0000000000
 49
0.5000000000
 49
-0.2500000000
 49
0.0000000000
 49
-0.2500000000
  0
ENDTAB
  0
TABLE
  2
LAYER
 70
2
  0
LAYER
  2
0
 70
0
 62
2
  6
CONTINUOUS
  0
LAYER
  2
249
 70
0
 62
2
  6
CONTINUOUS
  0
ENDTAB
  0
TABLE
  2
STYLE
 70
0
  0
STYLE
  2
Standard
 70
0
 40
0
 41
1
 50
0
 71
0
 42
2.5
  3
txt
  4

  0
ENDTAB
  0
ENDSEC
  0
SECTION
  2
BLOCKS
  0
BLOCK
  8
0
 62
5
  6
DASHDOT
  2
4_70__TK_13__4_187_-
 70
0
 10
0
 20
0
  0
LINE
  8
0
 62
50
  6
CONTINUOUS
 10
-4.8349056603773581
 20
0
 11
2.2405660377358489
 21
7.3316614833736751e-015
  0
LINE
  8
0
 62
50
  6
CONTINUOUS
 10
3.1839622641509435
 20
0.94339622641509435
 11
3.1839622641509435
 21
5.0317630433726421
  0
LINE
  8
0
 62
50
  6
CONTINUOUS
 10
2.3227884365566038
 20
5.9715693623349066
 11
-2.1779948593162257
 21
6.3653368777101198
  0
LINE
  8
0
 62
50
  6
CONTINUOUS
 10
8.6084905660377355
 20
8.0815747999528291
 11
8.6084905660377355
 21
-2.8362827592216977
  0
LINE
  8
0
 62
50
  6
CONTINUOUS
 10
8.2547169811320753
 20
-3.1900563441273579
 11
4.2156682019811322
 21
-3.1900563441273579
  0
LINE
  8
0
 62
50
  6
CONTINUOUS
 10
2.1679302578066038
 20
-3.0109024881367916
 11
-3.2854753180194542
 21
-2.0493199483759694
  0
LINE
  8
0
 62
50
  6
CONTINUOUS
 10
-5.0707547169811322
 20
-0.64834765490566038
 11
-5.0707547169811322
 21
-0.23584905660377359
  0
ARC
  8
0
 62
50
  6
CONTINUOUS
 10
8.2547169811320735
 20
-2.8362827592173607
 40
0.35377358490566035
 50
270
 51
359.99999999929759
  0
ARC
  8
0
 62
50
  6
CONTINUOUS
 10
2.2405660377358498
 20
0.94339622641510168
 40
0.94339622641509435
 50
270
 51
359.99999999999955
  0
ARC
  8
0
 62
50
  6
CONTINUOUS
 10
2.2405660377358489
 20
5.0317630433797964
 40
0.94339622641509435
 50
359.99999999956549
 51
84.999999999869701
  0
LINE
  8
0
 62
50
  6
CONTINUOUS
 10
-2.8301886792452828
 20
6.8528263190801892
 11
-2.8301886792452828
 21
8.1994993282547171
  0
ARC
  8
0
 62
50
  6
CONTINUOUS
 10
4.2156682019812379
 20
8.6023964860613198
 40
11.79245283018868
 50
260.00000000004991
 51
270
  0
ARC
  8
0
 62
50
  6
CONTINUOUS
 10
-2.8301886792452828
 20
6.381128205872642
 40
0.47169811320754718
 50
18.043953403308112
 51
90
  0
ARC
  8
0
 62
50
  6
CONTINUOUS
 10
-2.1574392596018828
 20
6.6002884574426819
 40
0.23584905660377359
 50
198.04395340330802
 51
264.99999999752276
  0
ARC
  8
0
 62
50
  6
CONTINUOUS
 10
-5.0707547169811322
 20
-2.282357850731132
 40
1.4150943396226414
 50
25.979911682191954
 51
81.786789298261809
  0
ARC
  8
0
 62
50
  6
CONTINUOUS
 10
-3.1626110413747348
 20
-1.3525220099291702
 40
0.70754716981132071
 50
205.97991168219195
 51
260.00000000043758
  0
ARC
  8
0
 62
50
  6
CONTINUOUS
 10
-4.8349056603773581
 20
-0.64834765491143642
 40
0.23584905660377359
 50
179.99999999859679
 51
261.78678929826185
  0
ARC
  8
0
 62
50
  6
CONTINUOUS
 10
-4.834905660377359
 20
-0.23584905660376626
 40
0.23584905660377359
 50
90
 51
180.00000000000179
  0
LINE
  8
0
 62
50
  6
CONTINUOUS
 10
-2.5943396226415096
 20
8.4353483848584894
 11
8.2547169811320753
 21
8.4353483848584894
  0
ARC
  8
0
 62
50
  6
CONTINUOUS
 10
-2.5943396226415096
 20
8.199499328245496
 40
0.23584905660377359
 50
90
 51
179.99999999775986
  0
ARC
  8
0
 62
50
  6
CONTINUOUS
 10
8.2547169811320735
 20
8.0815747999528291
 40
0.35377358490566035
 50
0
 51
90
  0
ARC
  8
249
 62
50
  6
CONTINUOUS
 10
-9.0296434069739149e-016
 20
10.793838950896227
 40
2.358490566037736
 50
244.19248350235989
 51
270
  0
ARC
  8
249
 62
50
  6
CONTINUOUS
 10
-1.7334905660377364
 20
9.614593667877358
 40
1.179245283018868
 50
240.65941842497625
 51
306.81989388442111
  0
LINE
  8
249
 62
50
  6
CONTINUOUS
 10
-2.3113207547169812
 20
8.5866191007925696
 11
-2.3113207547169816
 21
9.0249710263679219
  0
LINE
  8
249
 62
50
  6
CONTINUOUS
 10
-1.026766996014151
 20
8.6705803029850124
 11
-1.0267669960247239
 21
9.0249710263679237
  0
LINE
  8
249
 62
50
  6
CONTINUOUS
 10
-1.7334905660377358
 20
8.4353483848584894
 11
-6.1930229700960924e-090
 21
8.4353483848584894
  0
ARC
  8
249
 62
50
  6
CONTINUOUS
 10
4.5148217034869574e-016
 20
7.2561031018396234
 40
2.358490566037736
 50
90
 51
115.80751649764011
  0
ARC
  8
249
 62
50
  6
CONTINUOUS
 10
-1.733490566037736
 20
8.4353483848584894
 40
1.179245283018868
 50
53.180106115578894
 51
119.34058157502375
  0
LINE
  8
249
 62
50
  6
CONTINUOUS
 10
-2.3113207547169816
 20
9.4633229519432778
 11
-2.3113207547169816
 21
9.0249710263679219
  0
LINE
  8
249
 62
50
  6
CONTINUOUS
 10
-1.0267669960141514
 20
9.379361749750835
 11
-1.0267669960247239
 21
9.0249710263679237
  0
LINE
  8
249
 62
50
  6
CONTINUOUS
 10
-1.7334905660377362
 20
9.614593667877358
 11
-4.5148217034869574e-016
 21
9.614593667877358
  0
ARC
  8
249
 62
50
  6
CONTINUOUS
 10
-9.0296434069739149e-016
 20
10.793838950896227
 40
2.358490566037736
 50
270
 51
295.80751649764011
  0
ARC
  8
249
 62
50
  6
CONTINUOUS
 10
1.7334905660377355
 20
9.614593667877358
 40
1.179245283018868
 50
233.18010611557889
 51
299.34058157502375
  0
LINE
  8
249
 62
50
  6
CONTINUOUS
 10
2.3113207547169812
 20
8.5866191007925714
 11
2.3113207547169807
 21
9.0249710263679255
  0
LINE
  8
249
 62
50
  6
CONTINUOUS
 10
1.026766996014151
 20
8.6705803029850141
 11
1.0267669960247234
 21
9.0249710263679237
  0
LINE
  8
249
 62
50
  6
CONTINUOUS
 10
1.7334905660377358
 20
8.4353483848584911
 11
-6.1930229700960924e-090
 21
8.4353483848584894
  0
ARC
  8
249
 62
50
  6
CONTINUOUS
 10
4.5148217034869574e-016
 20
7.2561031018396234
 40
2.358490566037736
 50
64.192483502359892
 51
90
  0
ARC
  8
249
 62
50
  6
CONTINUOUS
 10
1.733490566037736
 20
8.4353483848584911
 40
1.179245283018868
 50
60.659418424976252
 51
126.81989388442111
  0
LINE
  8
249
 62
50
  6
CONTINUOUS
 10
2.3113207547169807
 20
9.4633229519432795
 11
2.3113207547169807
 21
9.0249710263679255
  0
LINE
  8
249
 62
50
  6
CONTINUOUS
 10
1.0267669960141506
 20
9.3793617497508368
 11
1.0267669960247234
 21
9.0249710263679237
  0
LINE
  8
249
 62
50
  6
CONTINUOUS
 10
1.7334905660377353
 20
9.614593667877358
 11
-4.5148217034869574e-016
 21
9.614593667877358
  0
LINE
  8
249
 62
50
  6
CONTINUOUS
 10
-2.3113207547169812
 20
12.091008762216982
 11
-2.3113207547169812
 21
13.469198497722582
  0
ARC
  8
249
 62
50
  6
CONTINUOUS
 10
-1.7334905660377355
 20
12.468367252783018
 40
1.1556603773584906
 50
47.540260940043446
 51
120.00000000000001
  0
ARC
  8
249
 62
50
  6
CONTINUOUS
 10
-1.0074127464156775e-089
 20
11.973084233915094
 40
1.6509433962264151
 50
54.728638055913144
 51
125.27136194408686
  0
ARC
  8
249
 62
50
  6
CONTINUOUS
 10
1.7334905660377355
 20
12.468367252783018
 40
1.1556603773584906
 50
59.999999999999986
 51
132.45973905995655
  0
LINE
  8
249
 62
50
  6
CONTINUOUS
 10
2.3113207547169812
 20
13.469198497722582
 11
2.3113207547169812
 21
12.091008762216982
  0
LINE
  8
249
 62
50
  6
CONTINUOUS
 10
-0.95333664257075468
 20
13.320957871714844
 11
-0.95333664257075468
 21
12.091008762216982
  0
LINE
  8
249
 62
50
  6
CONTINUOUS
 10
0.95333664257075468
 20
13.320957871714844
 11
0.95333664257075468
 21
12.091008762216982
  0
LINE
  8
249
 62
50
  6
CONTINUOUS
 10
-1.7334905660377358
 20
13.624027630141509
 11
1.7334905660377358
 21
13.624027630141509
  0
LINE
  8
249
 62
50
  6
CONTINUOUS
 10
-1.179245283018868
 20
11.973084233915094
 11
-1.179245283018868
 21
9.614593667877358
  0
LINE
  8
249
 62
50
  6
CONTINUOUS
 10
-1.179245283018868
 20
6.2779576120828926
 11
-1.179245283018868
 21
2.7631785735377368
  0
LINE
  8
249
 62
50
  6
CONTINUOUS
 10
-1.179245283018868
 20
2.7631785735377368
 11
-0.95518867924528317
 21
2.5391219697641514
  0
LINE
  8
249
 62
50
  6
CONTINUOUS
 10
-0.95518867924528317
 20
2.5391219697641514
 11
0.95518867924528361
 21
2.5391219697641514
  0
LINE
  8
249
 62
50
  6
CONTINUOUS
 10
0.95518867924528361
 20
2.5391219697641514
 11
1.179245283018868
 21
2.7631785735377354
  0
LINE
  8
249
 62
50
  6
CONTINUOUS
 10
1.179245283018868
 20
2.7631785735377354
 11
1.179245283018868
 21
6.0716164245220146
  0
LINE
  8
249
 62
50
  6
CONTINUOUS
 10
1.179245283018868
 20
9.614593667877358
 11
1.179245283018868
 21
11.973084233915094
  0
LINE
  8
249
 62
50
  6
CONTINUOUS
 10
-1.179245283018868
 20
2.7631785735377368
 11
1.179245283018868
 21
2.7631785735377368
  0
LINE
  8
249
 62
50
  6
CONTINUOUS
 10
2.3113207547169812
 20
12.091008762216982
 11
-2.3113207547169812
 21
12.091008762216982
  0
LINE
  8
249
 62
50
  6
CONTINUOUS
 10
-2.0047169811320753
 20
12.091008762216982
 11
-2.0047169811320753
 21
11.973084233915094
  0
LINE
  8
249
 62
50
  6
CONTINUOUS
 10
-2.0047169811320753
 20
11.973084233915094
 11
2.0047169811320753
 21
11.973084233915094
  0
LINE
  8
249
 62
50
  6
CONTINUOUS
 10
2.0047169811320753
 20
11.973084233915094
 11
2.0047169811320753
 21
12.091008762216982
  0
LINE
  8
249
 62
5
  6
CONTINUOUS
 10
-0.95518867924528295
 20
2.5391219697641514
 11
-0.95518867924528295
 21
6.2583551992646091
  0
LINE
  8
249
 62
5
  6
CONTINUOUS
 10
-0.95518867924528295
 20
9.614593667877358
 11
-0.95518867924528295
 21
11.973084233915094
  0
LINE
  8
249
 62
5
  6
CONTINUOUS
 10
0.95518867924528295
 20
2.5391219697641514
 11
0.95518867924528295
 21
6.091218837340298
  0
LINE
  8
249
 62
5
  6
CONTINUOUS
 10
0.95518867924528295
 20
9.614593667877358
 11
0.95518867924528295
 21
11.973084233915094
  0
LINE
  8
249
 62
5
  6
DASHDOT
 10
-1.0074127464156775e-089
 20
2.0674238565566041
 11
-1.0074127464156775e-089
 21
14.095725743349057
  0
LINE
  8
0
 62
5
  6
DASHDOT
 10
5.6603773584905657
 20
-3.8976035139386789
 11
5.6603773584905657
 21
9.1428955546698116
  0
LINE
  8
0
 62
140
  6
HIDDEN
 10
8.6084905660377338
 20
6.9858535675353775
 11
4.1273584905660377
 21
6.9858535675471698
  0
LINE
  8
0
 62
140
  6
HIDDEN
 10
3.891509433962264
 20
6.7500045109433957
 11
3.8915094339622636
 21
-1.5047124701886794
  0
LINE
  8
0
 62
140
  6
HIDDEN
 10
4.1273584905660377
 20
-1.7405615267924528
 11
8.6084905660377338
 21
-1.7405615267924528
  0
ARC
  8
0
 62
140
  6
HIDDEN
 10
4.1273584905660368
 20
-1.5047124701886794
 40
0.23584905660377359
 50
180
 51
270
  0
ARC
  8
0
 62
140
  6
HIDDEN
 10
4.1273584905660368
 20
6.7500045109316043
 40
0.23584905660377359
 50
90
 51
179.99999999713538
  0
ENDBLK
  0
BLOCK
  8
0
 62
5
  6
DASHDOT
  2
TELL_1
 70
0
 10
-13.679245283018869
 20
0
  0
LINE
  8
0
 62
50
  6
CONTINUOUS
 10
-10.966981132075471
 20
8.4353483848584894
 11
-10.966981132075471
 21
-3.1900563441273584
  0
LINE
  8
0
 62
50
  6
CONTINUOUS
 10
-10.966981132075471
 20
-3.1900563441273584
 11
-16.391509433962263
 21
-3.1900563441273584
  0
LINE
  8
0
 62
50
  6
CONTINUOUS
 10
-16.391509433962263
 20
-3.1900563441273584
 11
-16.391509433962263
 21
8.4353483848584894
  0
LINE
  8
0
 62
50
  6
CONTINUOUS
 10
-16.391509433962263
 20
8.4353483848584894
 11
-10.966981132075471
 21
8.4353483848584894
  0
LINE
  8
0
 62
50
  6
CONTINUOUS
 10
-11.910377358490566
 20
6.2783063977358493
 11
-11.910377358490566
 21
-1.0330143569811321
  0
LINE
  8
0
 62
50
  6
CONTINUOUS
 10
-12.617924528301886
 20
-1.7405615267924528
 11
-14.740566037735849
 21
-1.7405615267924528
  0
LINE
  8
0
 62
50
  6
CONTINUOUS
 10
-15.44811320754717
 20
-1.0330143569811321
 11
-15.44811320754717
 21
6.2783063977358493
  0
LINE
  8
0
 62
50
  6
CONTINUOUS
 10
-14.740566037735849
 20
6.9858535675471698
 11
-12.617924528301886
 21
6.9858535675471698
  0
ARC
  8
0
 62
50
  6
CONTINUOUS
 10
-14.740566037735851
 20
6.278306397724057
 40
0.70754716981132071
 50
90
 51
179.99999999904512
  0
ARC
  8
0
 62
50
  6
CONTINUOUS
 10
-12.617924528301886
 20
6.2783063977358493
 40
0.70754716981132071
 50
0
 51
90
  0
ARC
  8
0
 62
50
  6
CONTINUOUS
 10
-14.740566037735851
 20
-1.0330143569811321
 40
0.70754716981132071
 50
180
 51
270
  0
ARC
  8
0
 62
50
  6
CONTINUOUS
 10
-12.617924528301886
 20
-1.0330143569811321
 40
0.70754716981132071
 50
270
 51
0
  0
ARC
  8
0
 62
50
  6
CONTINUOUS
 10
-13.67924528301887
 20
10.793838950896227
 40
2.358490566037736
 50
244.19248350235989
 51
270
  0
ARC
  8
0
 62
50
  6
CONTINUOUS
 10
-15.412735849056602
 20
9.614593667877358
 40
1.179245283018868
 50
240.65941842497625
 51
306.81989388442111
  0
LINE
  8
0
 62
50
  6
CONTINUOUS
 10
-15.990566037735849
 20
8.5866191007925696
 11
-15.990566037735851
 21
9.0249710263679219
  0
LINE
  8
0
 62
50
  6
CONTINUOUS
 10
-14.706012279033018
 20
8.6705803029850124
 11
-14.706012279043591
 21
9.0249710263679237
  0
LINE
  8
0
 62
50
  6
CONTINUOUS
 10
-15.412735849056602
 20
8.4353483848584894
 11
-13.679245283018869
 21
8.4353483848584894
  0
ARC
  8
0
 62
50
  6
CONTINUOUS
 10
-13.679245283018869
 20
7.2561031018396225
 40
2.358490566037736
 50
90
 51
115.80751649764011
  0
ARC
  8
0
 62
50
  6
CONTINUOUS
 10
-15.412735849056602
 20
8.4353483848584894
 40
1.179245283018868
 50
53.180106115578894
 51
119.34058157502375
  0
LINE
  8
0
 62
50
  6
CONTINUOUS
 10
-15.990566037735851
 20
9.4633229519432778
 11
-15.990566037735851
 21
9.0249710263679219
  0
LINE
  8
0
 62
50
  6
CONTINUOUS
 10
-14.706012279033018
 20
9.379361749750835
 11
-14.706012279043591
 21
9.0249710263679237
  0
LINE
  8
0
 62
50
  6
CONTINUOUS
 10
-15.412735849056602
 20
9.614593667877358
 11
-13.679245283018869
 21
9.614593667877358
  0
ARC
  8
0
 62
50
  6
CONTINUOUS
 10
-13.67924528301887
 20
10.793838950896227
 40
2.358490566037736
 50
270
 51
295.80751649764011
  0
ARC
  8
0
 62
50
  6
CONTINUOUS
 10
-11.945754716981131
 20
9.614593667877358
 40
1.179245283018868
 50
233.18010611557889
 51
299.34058157502375
  0
LINE
  8
0
 62
50
  6
CONTINUOUS
 10
-11.367924528301888
 20
8.5866191007925714
 11
-11.367924528301888
 21
9.0249710263679255
  0
LINE
  8
0
 62
50
  6
CONTINUOUS
 10
-12.652478287004717
 20
8.6705803029850141
 11
-12.652478286994144
 21
9.0249710263679237
  0
LINE
  8
0
 62
50
  6
CONTINUOUS
 10
-11.945754716981131
 20
8.4353483848584911
 11
-13.679245283018869
 21
8.4353483848584894
  0
ARC
  8
0
 62
50
  6
CONTINUOUS
 10
-13.679245283018869
 20
7.2561031018396225
 40
2.358490566037736
 50
64.192483502359892
 51
90
  0
ARC
  8
0
 62
50
  6
CONTINUOUS
 10
-11.945754716981131
 20
8.4353483848584911
 40
1.179245283018868
 50
60.659418424976252
 51
126.81989388442111
  0
LINE
  8
0
 62
50
  6
CONTINUOUS
 10
-11.367924528301888
 20
9.4633229519432795
 11
-11.367924528301888
 21
9.0249710263679255
  0
LINE
  8
0
 62
50
  6
CONTINUOUS
 10
-12.652478287004717
 20
9.3793617497508368
 11
-12.652478286994144
 21
9.0249710263679237
  0
LINE
  8
0
 62
50
  6
CONTINUOUS
 10
-11.945754716981133
 20
9.614593667877358
 11
-13.679245283018869
 21
9.614593667877358
  0
LINE
  8
0
 62
50
  6
CONTINUOUS
 10
-15.990566037735849
 20
12.091008762216982
 11
-15.990566037735849
 21
13.469198497722582
  0
ARC
  8
0
 62
50
  6
CONTINUOUS
 10
-15.412735849056602
 20
12.468367252783018
 40
1.1556603773584906
 50
47.540260940043446
 51
120.00000000000001
  0
ARC
  8
0
 62
50
  6
CONTINUOUS
 10
-13.679245283018869
 20
11.973084233915094
 40
1.6509433962264151
 50
54.728638055913144
 51
125.27136194408686
  0
ARC
  8
0
 62
50
  6
CONTINUOUS
 10
-11.945754716981131
 20
12.468367252783018
 40
1.1556603773584906
 50
59.999999999999986
 51
132.45973905995655
  0
LINE
  8
0
 62
50
  6
CONTINUOUS
 10
-11.367924528301888
 20
13.469198497722582
 11
-11.367924528301888
 21
12.091008762216982
  0
LINE
  8
0
 62
50
  6
CONTINUOUS
 10
-14.632581925589623
 20
13.320957871714844
 11
-14.632581925589623
 21
12.091008762216982
  0
LINE
  8
0
 62
50
  6
CONTINUOUS
 10
-12.725908640448115
 20
13.320957871714844
 11
-12.725908640448115
 21
12.091008762216982
  0
LINE
  8
0
 62
50
  6
CONTINUOUS
 10
-15.412735849056602
 20
13.624027630141509
 11
-11.945754716981131
 21
13.624027630141509
  0
LINE
  8
0
 62
50
  6
CONTINUOUS
 10
-14.858490566037736
 20
11.973084233915094
 11
-14.858490566037736
 21
9.614593667877358
  0
LINE
  8
0
 62
50
  6
CONTINUOUS
 10
-12.5
 20
9.614593667877358
 11
-12.5
 21
11.973084233915094
  0
LINE
  8
0
 62
50
  6
CONTINUOUS
 10
-11.367924528301888
 20
12.091008762216982
 11
-15.990566037735849
 21
12.091008762216982
  0
LINE
  8
0
 62
50
  6
CONTINUOUS
 10
-15.683962264150944
 20
12.091008762216982
 11
-15.683962264150944
 21
11.973084233915094
  0
LINE
  8
0
 62
50
  6
CONTINUOUS
 10
-15.683962264150944
 20
11.973084233915094
 11
-11.674528301886793
 21
11.973084233915094
  0
LINE
  8
0
 62
50
  6
CONTINUOUS
 10
-11.674528301886793
 20
11.973084233915094
 11
-11.674528301886793
 21
12.091008762216982
  0
LINE
  8
0
 62
5
  6
CONTINUOUS
 10
-14.634433962264151
 20
9.614593667877358
 11
-14.634433962264151
 21
11.973084233915094
  0
LINE
  8
0
 62
5
  6
CONTINUOUS
 10
-12.724056603773585
 20
9.614593667877358
 11
-12.724056603773585
 21
11.973084233915094
  0
LINE
  8
0
 62
5
  6
DASHDOT
 10
-13.679245283018869
 20
-3.8976035139386789
 11
-13.679245283018869
 21
14.095725743349057
  0
ENDBLK
  0
ENDSEC
  0
SECTION
  2
ENTITIES
  0
INSERT
  8
0
 62
5
  6
DASHDOT
  2
4_70__TK_13__4_187_-
 10
0
 20
0
 41
1.0
 42
1.0
 50
0.0
  0
INSERT
  8
0
 62
5
  6
DASHDOT
  2
TELL_1
 10
-13.679245283018869
 20
0
 41
1.0
 42
1.0
 50
0.0
  0
ENDSEC
  0
EOF
