  0
SECTION
  2
HEADER
  9
$ACADVER
  1
AC1009
  9
$EXTMIN
 10
-15.09433962264151
 20
-3.5267475005004112
  9
$EXTMAX
 10
9.9056603773584921
 20
17.04009433961691
  9
$TEXTSTYLE
  7
STANDARD
  9
$DIMLFAC
 40
1
  9
$REGENMODE
 70
1
  9
$DRAGMODE
 70
2
  9
$DIMASO
 70
1
  9
$LTSCALE
 40
1.0000000000
  0
ENDSEC
  0
SECTION
  2
TABLES
  0
TABLE
  2
LTYPE
 70
3
  0
LTYPE
  2
CONTINUOUS
 70
64
  3
CONTINUOUS
 72
65
 73
0
 40
0.0000000000
  0
LTYPE
  2
HIDDEN
 70
64
  3
HIDDEN
 72
65
 73
2
 40
0.5000000000
 49
0.2500000000
 49
-0.2500000000
  0
LTYPE
  2
DASHDOT
 70
64
  3
DASHDOT
 72
65
 73
4
 40
1.0000000000
 49
0.5000000000
 49
-0.2500000000
 49
0.0000000000
 49
-0.2500000000
  0
ENDTAB
  0
TABLE
  2
LAYER
 70
2
  0
LAYER
  2
0
 70
0
 62
2
  6
CONTINUOUS
  0
LAYER
  2
249
 70
0
 62
2
  6
CONTINUOUS
  0
ENDTAB
  0
TABLE
  2
STYLE
 70
0
  0
STYLE
  2
Standard
 70
0
 40
0
 41
1
 50
0
 71
0
 42
2.5
  3
txt
  4

  0
ENDTAB
  0
ENDSEC
  0
SECTION
  2
BLOCKS
  0
BLOCK
  8
0
 62
5
  6
DASHDOT
  2
4_70__TK_12_16__11_978_-
 70
0
 10
0
 20
0
  0
LINE
  8
0
 62
50
  6
CONTINUOUS
 10
-2.1695772259433963
 20
6.9150709301415096
 11
2.2399808007311321
 21
6.4741151274764155
  0
LINE
  8
0
 62
50
  6
CONTINUOUS
 10
3.3018867924528301
 20
5.3007222144811319
 11
3.3018867924528297
 21
0.70754716981132071
  0
LINE
  8
0
 62
50
  6
CONTINUOUS
 10
2.5943396226415096
 20
0
 11
-2.358490566037736
 21
0
  0
LINE
  8
0
 62
50
  6
CONTINUOUS
 10
-2.5943396226415096
 20
7.3844280953301888
 11
-2.5943396226415096
 21
9.7287735849056602
  0
LINE
  8
0
 62
50
  6
CONTINUOUS
 10
-2.358490566037736
 20
9.9646226415094343
 11
9.6698113207547163
 21
9.9646226415094343
  0
LINE
  8
0
 62
50
  6
CONTINUOUS
 10
9.9056603773584904
 20
9.7287735849056602
 11
9.9056603773584904
 21
-2.7598392243632075
  0
LINE
  8
0
 62
50
  6
CONTINUOUS
 10
9.6586987211084896
 20
-2.9954263369575473
 11
-2.3696031656839622
 21
-2.4280536064622642
  0
LINE
  8
0
 62
50
  6
CONTINUOUS
 10
-2.5943396226415096
 20
-2.1924664938443397
 11
-2.5943396226415096
 21
-0.23584905660377359
  0
ARC
  8
249
 62
50
  6
CONTINUOUS
 10
-1.4447429451158264e-015
 20
13.738207547169811
 40
3.773584905660377
 50
251.26835001927253
 51
270
  0
ARC
  8
249
 62
50
  6
CONTINUOUS
 10
-1.9369103773584906
 20
11.379716981132075
 40
1.4150943396226414
 50
242.85460969096761
 51
300.82294853845411
  0
LINE
  8
249
 62
50
  6
CONTINUOUS
 10
-2.5825471698113205
 20
10.120492965214629
 11
-2.5825471698113209
 21
11.143867924528301
  0
LINE
  8
249
 62
50
  6
CONTINUOUS
 10
-1.2118346308018868
 20
10.164498008359093
 11
-1.2118346308064285
 21
11.143867924528301
  0
LINE
  8
249
 62
50
  6
CONTINUOUS
 10
-1.9369103773584906
 20
9.9646226415094343
 11
3.4193396226415094e-089
 21
9.9646226415094343
  0
ARC
  8
249
 62
50
  6
CONTINUOUS
 10
5.4177860441843474e-016
 20
8.5495283018867934
 40
3.773584905660377
 50
90
 51
108.73164998072747
  0
ARC
  8
249
 62
50
  6
CONTINUOUS
 10
-1.9369103773584906
 20
10.908018867924529
 40
1.4150943396226414
 50
59.177051461545886
 51
117.14539030903239
  0
LINE
  8
249
 62
50
  6
CONTINUOUS
 10
-2.5825471698113214
 20
12.167242883841974
 11
-2.5825471698113209
 21
11.143867924528301
  0
LINE
  8
249
 62
50
  6
CONTINUOUS
 10
-1.2118346308018875
 20
12.123237840697511
 11
-1.2118346308064285
 21
11.143867924528301
  0
LINE
  8
249
 62
50
  6
CONTINUOUS
 10
-1.9369103773584915
 20
12.32311320754717
 11
-9.0296434069739149e-016
 21
12.32311320754717
  0
ARC
  8
249
 62
50
  6
CONTINUOUS
 10
-1.4447429451158264e-015
 20
13.738207547169811
 40
3.773584905660377
 50
270
 51
288.73164998072747
  0
ARC
  8
249
 62
50
  6
CONTINUOUS
 10
1.9369103773584899
 20
11.379716981132075
 40
1.4150943396226414
 50
239.17705146154589
 51
297.14539030903239
  0
LINE
  8
249
 62
50
  6
CONTINUOUS
 10
2.5825471698113205
 20
10.12049296521463
 11
2.58254716981132
 21
11.143867924528303
  0
LINE
  8
249
 62
50
  6
CONTINUOUS
 10
1.2118346308018868
 20
10.164498008359093
 11
1.2118346308064278
 21
11.143867924528301
  0
LINE
  8
249
 62
50
  6
CONTINUOUS
 10
1.9369103773584906
 20
9.9646226415094343
 11
3.4193396226415094e-089
 21
9.9646226415094343
  0
ARC
  8
249
 62
50
  6
CONTINUOUS
 10
5.4177860441843474e-016
 20
8.5495283018867934
 40
3.773584905660377
 50
71.268350019272532
 51
90
  0
ARC
  8
249
 62
50
  6
CONTINUOUS
 10
1.9369103773584899
 20
10.908018867924529
 40
1.4150943396226414
 50
62.854609690967607
 51
120.82294853845411
  0
LINE
  8
249
 62
50
  6
CONTINUOUS
 10
2.5825471698113196
 20
12.167242883841975
 11
2.58254716981132
 21
11.143867924528303
  0
LINE
  8
249
 62
50
  6
CONTINUOUS
 10
1.2118346308018859
 20
12.123237840697511
 11
1.2118346308064278
 21
11.143867924528301
  0
LINE
  8
249
 62
50
  6
CONTINUOUS
 10
1.9369103773584899
 20
12.32311320754717
 11
-9.0296434069739149e-016
 21
12.32311320754717
  0
LINE
  8
249
 62
50
  6
CONTINUOUS
 10
-2.5825471698064315
 20
14.799528301881061
 11
-2.5825471698064315
 21
16.395398369267806
  0
ARC
  8
249
 62
50
  6
CONTINUOUS
 10
-1.9369103773536018
 20
15.277122641503704
 40
1.2912735849056602
 50
47.88538956950412
 51
120
  0
ARC
  8
249
 62
50
  6
CONTINUOUS
 10
4.890008733367859e-012
 20
14.681603773579175
 40
1.8867924528301887
 50
55.416281764990273
 51
124.58371823500973
  0
ARC
  8
249
 62
50
  6
CONTINUOUS
 10
1.936910377363382
 20
15.277122641503704
 40
1.2912735849056602
 50
60.000000000000007
 51
132.11461043049587
  0
LINE
  8
249
 62
50
  6
CONTINUOUS
 10
2.5825471698162117
 20
16.395398369267806
 11
2.5825471698162117
 21
14.799528301881061
  0
LINE
  8
249
 62
50
  6
CONTINUOUS
 10
-1.0709619078017127
 20
16.234995659770227
 11
-1.0709619077917751
 21
14.799528301881061
  0
LINE
  8
249
 62
50
  6
CONTINUOUS
 10
1.0709619078114927
 20
16.234995659770227
 11
1.0709619078015551
 21
14.799528301881061
  0
LINE
  8
249
 62
50
  6
CONTINUOUS
 10
-1.9369103773536018
 20
16.568396226409362
 11
1.936910377363382
 21
16.568396226409362
  0
LINE
  8
249
 62
50
  6
CONTINUOUS
 10
-1.4150943396177516
 20
4.3042452830131364
 11
-1.4150943396177516
 21
6.8396226415089449
  0
LINE
  8
249
 62
50
  6
CONTINUOUS
 10
-1.4150943396177516
 20
12.32311320754717
 11
-1.4150943396177516
 21
14.681603773579175
  0
LINE
  8
249
 62
50
  6
CONTINUOUS
 10
1.4150943396275315
 20
4.304245283013123
 11
1.4150943396275315
 21
6.5566037735844169
  0
LINE
  8
249
 62
50
  6
CONTINUOUS
 10
1.4150943396275315
 20
12.32311320754717
 11
1.4150943396275315
 21
14.681603773579175
  0
LINE
  8
249
 62
50
  6
CONTINUOUS
 10
2.5825471698162117
 20
14.799528301881061
 11
-2.5825471698064315
 21
14.799528301881061
  0
LINE
  8
249
 62
50
  6
CONTINUOUS
 10
-2.2405660377309591
 20
14.799528301881061
 11
-2.2405660377309591
 21
14.681603773579175
  0
LINE
  8
249
 62
50
  6
CONTINUOUS
 10
-2.2405660377309591
 20
14.681603773579175
 11
2.2405660377407393
 21
14.681603773579175
  0
LINE
  8
249
 62
50
  6
CONTINUOUS
 10
2.2405660377407393
 20
14.681603773579175
 11
2.2405660377407393
 21
14.799528301881061
  0
LINE
  8
249
 62
5
  6
CONTINUOUS
 10
-1.1556603773536018
 20
4.0448113207489875
 11
-1.1556603773536018
 21
6.8136792452825299
  0
LINE
  8
249
 62
5
  6
CONTINUOUS
 10
-1.1556603773536018
 20
12.32311320754717
 11
-1.1556603773536018
 21
14.681603773579175
  0
LINE
  8
249
 62
5
  6
CONTINUOUS
 10
1.155660377363382
 20
4.0448113207489733
 11
1.155660377363382
 21
6.5825471698108311
  0
LINE
  8
249
 62
5
  6
CONTINUOUS
 10
1.155660377363382
 20
12.32311320754717
 11
1.155660377363382
 21
14.681603773579175
  0
LINE
  8
249
 62
5
  6
DASHDOT
 10
4.890008733367859e-012
 20
-3.5267475005004112
 11
4.890008733367859e-012
 21
17.04009433961691
  0
LINE
  8
0
 62
50
  6
CONTINUOUS
 10
-1.4150943396177516
 20
4.3042452830131364
 11
1.4150943396275315
 21
4.304245283013123
  0
LINE
  8
0
 62
50
  6
CONTINUOUS
 10
-1.4150943396177516
 20
4.3042452830131364
 11
4.896711966724087e-012
 21
2.8891509433904883
  0
LINE
  8
0
 62
50
  6
CONTINUOUS
 10
4.896711966724087e-012
 20
2.8891509433904883
 11
1.4150943396275451
 21
4.3042452830131364
  0
ARC
  8
0
 62
50
  6
CONTINUOUS
 10
-2.1226415094339623
 20
7.3844280953358901
 40
0.47169811320754718
 50
180.00000000069249
 51
264.28940686370947
  0
ARC
  8
0
 62
50
  6
CONTINUOUS
 10
-2.3584905660377364
 20
9.7287735849056602
 40
0.23584905660377359
 50
90
 51
180
  0
ARC
  8
0
 62
50
  6
CONTINUOUS
 10
-2.3584905660377364
 20
-2.1924664938458558
 40
0.23584905660377359
 50
179.99999999963165
 51
267.29937066393734
  0
ARC
  8
0
 62
50
  6
CONTINUOUS
 10
-2.3584905660377364
 20
-0.23584905660377359
 40
0.23584905660377359
 50
90
 51
180
  0
ARC
  8
0
 62
50
  6
CONTINUOUS
 10
9.6698113207547181
 20
-2.7598392243549741
 40
0.23584905660377359
 50
267.29937066377835
 51
359.99999999799974
  0
ARC
  8
0
 62
50
  6
CONTINUOUS
 10
9.6698113207547181
 20
9.7287735849056602
 40
0.23584905660377359
 50
0
 51
90
  0
ARC
  8
0
 62
50
  6
CONTINUOUS
 10
2.5943396226415092
 20
0.70754716981132071
 40
0.70754716981132071
 50
270
 51
0
  0
ARC
  8
0
 62
50
  6
CONTINUOUS
 10
2.1226415094339619
 20
5.3007222144904613
 40
1.179245283018868
 50
359.99999999954673
 51
84.289406862569251
  0
LINE
  8
0
 62
5
  6
DASHDOT
 10
6.8396226415094352
 20
-3.5267475005004112
 11
6.8396226415094352
 21
10.718209803498079
  0
ARC
  8
0
 62
140
  6
HIDDEN
 10
9.5518867924528301
 20
-0.52483580999411084
 40
0.35377358490566035
 50
359.99999999904622
 51
90
  0
LINE
  8
0
 62
140
  6
HIDDEN
 10
9.5518867924528301
 20
-0.17106222509433963
 11
4.9528301886792452
 21
-0.17106222509433963
  0
LINE
  8
0
 62
140
  6
HIDDEN
 10
4.716981132075472
 20
0.064786831509433956
 11
4.716981132075472
 21
6.9044094730188688
  0
LINE
  8
0
 62
140
  6
HIDDEN
 10
4.9528301886792452
 20
7.140258529622642
 11
9.5518867924528301
 21
7.1402585296285306
  0
ARC
  8
0
 62
140
  6
HIDDEN
 10
9.5518867924528301
 20
7.4940321145341908
 40
0.35377358490566035
 50
270
 51
359.99999999904628
  0
ARC
  8
0
 62
140
  6
HIDDEN
 10
4.9528301886792452
 20
0.064786831509433956
 40
0.23584905660377359
 50
180
 51
270
  0
ARC
  8
0
 62
140
  6
HIDDEN
 10
4.9528301886792443
 20
6.9044094730247574
 40
0.23584905660377359
 50
90
 51
180.00000000143058
  0
ENDBLK
  0
BLOCK
  8
0
 62
50
  6
CONTINUOUS
  2
TELL_1
 70
0
 10
-11.792452830188683
 20
0
  0
LINE
  8
0
 62
50
  6
CONTINUOUS
 10
-8.4905660377358494
 20
9.7287735849056602
 11
-8.4905660377358494
 21
-2.7598392243632075
  0
LINE
  8
0
 62
50
  6
CONTINUOUS
 10
-8.7264150943396235
 20
-2.9956882809669811
 11
-14.858490566037736
 21
-2.9956882809587477
  0
LINE
  8
0
 62
50
  6
CONTINUOUS
 10
-15.09433962264151
 20
-2.7598392243632075
 11
-15.09433962264151
 21
9.7287735849056602
  0
LINE
  8
0
 62
50
  6
CONTINUOUS
 10
-14.858490566037736
 20
9.9646226415094343
 11
-8.7264150943396235
 21
9.9646226415094343
  0
LINE
  8
0
 62
50
  6
CONTINUOUS
 10
-13.679245283018869
 20
7.140258529622642
 11
-9.9056603773584904
 21
7.140258529622642
  0
LINE
  8
0
 62
50
  6
CONTINUOUS
 10
-9.6698113207547163
 20
6.9044094730188688
 11
-9.6698113207547181
 21
0.064786831509433956
  0
LINE
  8
0
 62
50
  6
CONTINUOUS
 10
-9.9056603773584904
 20
-0.17106222509433963
 11
-13.679245283018869
 21
-0.17106222509433963
  0
LINE
  8
0
 62
50
  6
CONTINUOUS
 10
-13.915094339622641
 20
0.064786831509433956
 11
-13.915094339622641
 21
6.9044094730188688
  0
ARC
  8
0
 62
50
  6
CONTINUOUS
 10
-13.67924528301887
 20
0.064786831509433956
 40
0.23584905660377359
 50
180
 51
270
  0
ARC
  8
0
 62
50
  6
CONTINUOUS
 10
-9.9056603773584904
 20
0.064786831509433956
 40
0.23584905660377359
 50
270
 51
0
  0
ARC
  8
0
 62
50
  6
CONTINUOUS
 10
-13.679245283018869
 20
6.9044094730188688
 40
0.23584905660377359
 50
90
 51
180
  0
ARC
  8
0
 62
50
  6
CONTINUOUS
 10
-9.9056603773584904
 20
6.9044094730188688
 40
0.23584905660377359
 50
0
 51
90
  0
ARC
  8
0
 62
50
  6
CONTINUOUS
 10
-14.858490566037736
 20
-2.7598392243549741
 40
0.23584905660377359
 50
180.00000000200023
 51
270
  0
ARC
  8
0
 62
50
  6
CONTINUOUS
 10
-8.7264150943396235
 20
-2.7598392243549741
 40
0.23584905660377359
 50
270
 51
359.99999999799974
  0
ARC
  8
0
 62
50
  6
CONTINUOUS
 10
-14.858490566037736
 20
9.7287735849056602
 40
0.23584905660377359
 50
90
 51
180
  0
ARC
  8
0
 62
50
  6
CONTINUOUS
 10
-8.7264150943396235
 20
9.7287735849056602
 40
0.23584905660377359
 50
0
 51
90
  0
ARC
  8
0
 62
50
  6
CONTINUOUS
 10
-11.792452830193575
 20
13.738207547169811
 40
3.773584905660377
 50
251.26835001927253
 51
270
  0
ARC
  8
0
 62
50
  6
CONTINUOUS
 10
-13.729363207552064
 20
11.379716981132075
 40
1.4150943396226414
 50
242.85460969096761
 51
300.82294853845411
  0
LINE
  8
0
 62
50
  6
CONTINUOUS
 10
-14.375000000004894
 20
10.120492965214629
 11
-14.375000000004894
 21
11.143867924528301
  0
LINE
  8
0
 62
50
  6
CONTINUOUS
 10
-13.004287460995458
 20
10.164498008359093
 11
-13.004287461000001
 21
11.143867924528301
  0
LINE
  8
0
 62
50
  6
CONTINUOUS
 10
-13.729363207552064
 20
9.9646226415094343
 11
-11.792452830193573
 21
9.9646226415094343
  0
ARC
  8
0
 62
50
  6
CONTINUOUS
 10
-11.792452830193573
 20
8.5495283018867934
 40
3.773584905660377
 50
90
 51
108.73164998072747
  0
ARC
  8
0
 62
50
  6
CONTINUOUS
 10
-13.729363207552064
 20
10.908018867924529
 40
1.4150943396226414
 50
59.177051461545886
 51
117.14539030903239
  0
LINE
  8
0
 62
50
  6
CONTINUOUS
 10
-14.375000000004894
 20
12.167242883841975
 11
-14.375000000004894
 21
11.143867924528301
  0
LINE
  8
0
 62
50
  6
CONTINUOUS
 10
-13.00428746099546
 20
12.123237840697511
 11
-13.004287461000001
 21
11.143867924528301
  0
LINE
  8
0
 62
50
  6
CONTINUOUS
 10
-13.729363207552066
 20
12.32311320754717
 11
-11.792452830193575
 21
12.32311320754717
  0
ARC
  8
0
 62
50
  6
CONTINUOUS
 10
-11.792452830193575
 20
13.738207547169811
 40
3.773584905660377
 50
270
 51
288.73164998072747
  0
ARC
  8
0
 62
50
  6
CONTINUOUS
 10
-9.8555424528350848
 20
11.379716981132075
 40
1.4150943396226414
 50
239.17705146154589
 51
297.14539030903239
  0
LINE
  8
0
 62
50
  6
CONTINUOUS
 10
-9.2099056603822511
 20
10.120492965214629
 11
-9.2099056603822511
 21
11.143867924528301
  0
LINE
  8
0
 62
50
  6
CONTINUOUS
 10
-10.580618199391687
 20
10.164498008359093
 11
-10.580618199387144
 21
11.143867924528301
  0
LINE
  8
0
 62
50
  6
CONTINUOUS
 10
-9.8555424528350812
 20
9.9646226415094343
 11
-11.792452830193573
 21
9.9646226415094343
  0
ARC
  8
0
 62
50
  6
CONTINUOUS
 10
-11.792452830193573
 20
8.5495283018867934
 40
3.773584905660377
 50
71.268350019272532
 51
90
  0
ARC
  8
0
 62
50
  6
CONTINUOUS
 10
-9.8555424528350848
 20
10.908018867924529
 40
1.4150943396226414
 50
62.854609690967607
 51
120.82294853845411
  0
LINE
  8
0
 62
50
  6
CONTINUOUS
 10
-9.2099056603822547
 20
12.167242883841975
 11
-9.2099056603822511
 21
11.143867924528301
  0
LINE
  8
0
 62
50
  6
CONTINUOUS
 10
-10.580618199391687
 20
12.123237840697511
 11
-10.580618199387144
 21
11.143867924528301
  0
LINE
  8
0
 62
50
  6
CONTINUOUS
 10
-9.8555424528350848
 20
12.32311320754717
 11
-11.792452830193575
 21
12.32311320754717
  0
LINE
  8
0
 62
50
  6
CONTINUOUS
 10
-14.375000000000004
 20
14.799528301881061
 11
-14.375000000000004
 21
16.395398369267806
  0
ARC
  8
0
 62
50
  6
CONTINUOUS
 10
-13.729363207547175
 20
15.277122641503704
 40
1.2912735849056602
 50
47.88538956950412
 51
120
  0
ARC
  8
0
 62
50
  6
CONTINUOUS
 10
-11.792452830188683
 20
14.681603773579175
 40
1.8867924528301887
 50
55.416281764990273
 51
124.58371823500973
  0
ARC
  8
0
 62
50
  6
CONTINUOUS
 10
-9.8555424528301909
 20
15.277122641503704
 40
1.2912735849056602
 50
60.000000000000007
 51
132.11461043049587
  0
LINE
  8
0
 62
50
  6
CONTINUOUS
 10
-9.2099056603773608
 20
16.395398369267806
 11
-9.2099056603773608
 21
14.799528301881061
  0
LINE
  8
0
 62
50
  6
CONTINUOUS
 10
-12.863414737995285
 20
16.234995659770227
 11
-12.863414737985348
 21
14.799528301881061
  0
LINE
  8
0
 62
50
  6
CONTINUOUS
 10
-10.721490922382079
 20
16.234995659770227
 11
-10.721490922392018
 21
14.799528301881061
  0
LINE
  8
0
 62
50
  6
CONTINUOUS
 10
-13.729363207547175
 20
16.568396226409362
 11
-9.8555424528301909
 21
16.568396226409362
  0
LINE
  8
0
 62
50
  6
CONTINUOUS
 10
-13.207547169811324
 20
12.32311320754717
 11
-13.207547169811324
 21
14.681603773579175
  0
LINE
  8
0
 62
50
  6
CONTINUOUS
 10
-10.377358490566042
 20
12.32311320754717
 11
-10.377358490566042
 21
14.681603773579175
  0
LINE
  8
0
 62
50
  6
CONTINUOUS
 10
-9.2099056603773608
 20
14.799528301881061
 11
-14.375000000000004
 21
14.799528301881061
  0
LINE
  8
0
 62
50
  6
CONTINUOUS
 10
-14.033018867924532
 20
14.799528301881061
 11
-14.033018867924532
 21
14.681603773579175
  0
LINE
  8
0
 62
50
  6
CONTINUOUS
 10
-14.033018867924532
 20
14.681603773579175
 11
-9.5518867924528337
 21
14.681603773579175
  0
LINE
  8
0
 62
50
  6
CONTINUOUS
 10
-9.5518867924528337
 20
14.681603773579175
 11
-9.5518867924528337
 21
14.799528301881061
  0
LINE
  8
0
 62
5
  6
CONTINUOUS
 10
-12.948113207547175
 20
12.32311320754717
 11
-12.948113207547175
 21
14.681603773579175
  0
LINE
  8
0
 62
5
  6
CONTINUOUS
 10
-10.636792452830191
 20
12.32311320754717
 11
-10.636792452830191
 21
14.681603773579175
  0
LINE
  8
0
 62
5
  6
DASHDOT
 10
-11.792452830188683
 20
-3.5267475005004112
 11
-11.792452830188683
 21
17.04009433961691
  0
ENDBLK
  0
ENDSEC
  0
SECTION
  2
ENTITIES
  0
INSERT
  8
0
 62
5
  6
DASHDOT
  2
4_70__TK_12_16__11_978_-
 10
0
 20
0
 41
1.0
 42
1.0
 50
0.0
  0
INSERT
  8
0
 62
50
  6
CONTINUOUS
  2
TELL_1
 10
-11.792452830188683
 20
0
 41
1.0
 42
1.0
 50
0.0
  0
ENDSEC
  0
EOF
