  0
SECTION
  2
HEADER
  9
$ACADVER
  1
AC1009
  9
$EXTMIN
 10
-17.202970297029704
 20
-3.217821782178218
  9
$EXTMAX
 10
7.7970297029702973
 20
15.594059405954225
  9
$TEXTSTYLE
  7
STANDARD
  9
$DIMLFAC
 40
1
  9
$REGENMODE
 70
1
  9
$DRAGMODE
 70
2
  9
$DIMASO
 70
1
  9
$LTSCALE
 40
1.0000000000
  0
ENDSEC
  0
SECTION
  2
TABLES
  0
TABLE
  2
LTYPE
 70
3
  0
LTYPE
  2
CONTINUOUS
 70
64
  3
CONTINUOUS
 72
65
 73
0
 40
0.0000000000
  0
LTYPE
  2
HIDDEN
 70
64
  3
HIDDEN
 72
65
 73
2
 40
0.5000000000
 49
0.2500000000
 49
-0.2500000000
  0
LTYPE
  2
DASHDOT
 70
64
  3
DASHDOT
 72
65
 73
4
 40
1.0000000000
 49
0.5000000000
 49
-0.2500000000
 49
0.0000000000
 49
-0.2500000000
  0
ENDTAB
  0
TABLE
  2
LAYER
 70
2
  0
LAYER
  2
0
 70
0
 62
2
  6
CONTINUOUS
  0
LAYER
  2
249
 70
0
 62
2
  6
CONTINUOUS
  0
ENDTAB
  0
TABLE
  2
STYLE
 70
0
  0
STYLE
  2
Standard
 70
0
 40
0
 41
1
 50
0
 71
0
 42
2.5
  3
txt
  4

  0
ENDTAB
  0
ENDSEC
  0
SECTION
  2
BLOCKS
  0
BLOCK
  8
0
 62
140
  6
HIDDEN
  2
4_70__TK_8_10__7_791_-
 70
0
 10
0
 20
0
  0
LINE
  8
0
 62
50
  6
CONTINUOUS
 10
-2.3514851485148514
 20
7.5736918239356434
 11
-2.3514851485148514
 21
9.1584158415841586
  0
LINE
  8
0
 62
50
  6
CONTINUOUS
 10
-1.8564356435643563
 20
9.653465346534654
 11
5.4928265850495048
 21
9.653465346534654
  0
LINE
  8
0
 62
50
  6
CONTINUOUS
 10
6.7116480615346532
 20
8.6307526951237623
 11
7.759425131212871
 21
2.6885136488613863
  0
LINE
  8
0
 62
50
  6
CONTINUOUS
 10
7.7970297029702973
 20
2.2586914269059406
 11
7.7970297029702964
 21
-2.2277227722772279
  0
LINE
  8
0
 62
50
  6
CONTINUOUS
 10
7.5495049504950495
 20
-2.4752475247524752
 11
-2.1039603960396041
 21
-2.4752475247524752
  0
LINE
  8
0
 62
50
  6
CONTINUOUS
 10
-2.3514851485148514
 20
-2.2277227722772279
 11
-2.3514851485148514
 21
-0.24752475247524752
  0
LINE
  8
0
 62
50
  6
CONTINUOUS
 10
-2.1039603960396041
 20
0
 11
2.8465346534653464
 21
0
  0
LINE
  8
0
 62
50
  6
CONTINUOUS
 10
3.5891089108910892
 20
0.74257425742574257
 11
3.5891089108910892
 21
5.6930693069306928
  0
LINE
  8
0
 62
50
  6
CONTINUOUS
 10
-2.3514851485148514
 20
-0.74257425742574257
 11
7.7970297029702964
 21
-0.74257425742574257
  0
ARC
  8
0
 62
50
  6
CONTINUOUS
 10
2.8465346534653464
 20
0.74257425742574257
 40
0.74257425742574257
 50
270
 51
0
  0
ARC
  8
0
 62
50
  6
CONTINUOUS
 10
-1.8564356435643563
 20
9.1584158415841586
 40
0.49504950495049505
 50
90
 51
180
  0
ARC
  8
0
 62
50
  6
CONTINUOUS
 10
5.4928265850416098
 20
8.4158415841584162
 40
1.2376237623762376
 50
9.9999999996669491
 51
90
  0
ARC
  8
0
 62
50
  6
CONTINUOUS
 10
-2.1039603960396041
 20
-0.24752475247524752
 40
0.24752475247524752
 50
90
 51
180
  0
ARC
  8
0
 62
50
  6
CONTINUOUS
 10
-2.1039603960396041
 20
-2.2277227722772279
 40
0.24752475247524752
 50
180
 51
270
  0
ARC
  8
0
 62
50
  6
CONTINUOUS
 10
7.5495049504950487
 20
-2.2277227722772279
 40
0.24752475247524752
 50
270
 51
0
  0
ARC
  8
0
 62
50
  6
CONTINUOUS
 10
5.3217821782178207
 20
2.2586914269143157
 40
2.4752475247524752
 50
359.99999999980616
 51
10.00000000000426
  0
LINE
  8
0
 62
50
  6
CONTINUOUS
 10
2.4593511667574255
 20
6.925983537252475
 11
-2.1255335996782181
 21
7.327108977871287
  0
ARC
  8
0
 62
50
  6
CONTINUOUS
 10
-2.1039603960396041
 20
7.5736918239422533
 40
0.24752475247524752
 50
180.00000000152991
 51
265.00000000289481
  0
ARC
  8
0
 62
50
  6
CONTINUOUS
 10
2.3514851485148514
 20
5.6930693069291856
 40
1.2376237623762376
 50
6.9778825267564394e-011
 51
85.00000000048442
  0
ARC
  8
249
 62
50
  6
CONTINUOUS
 10
-9.4766554568241092e-016
 20
12.128712871287128
 40
2.4752475247524752
 50
244.19248350235989
 51
270
  0
ARC
  8
249
 62
50
  6
CONTINUOUS
 10
-1.8193069306930698
 20
10.89108910891089
 40
1.2376237623762376
 50
240.65941842497625
 51
306.81989388442111
  0
LINE
  8
249
 62
50
  6
CONTINUOUS
 10
-2.4257425742574257
 20
9.8122247117723997
 11
-2.4257425742574261
 21
10.272277227722773
  0
LINE
  8
249
 62
50
  6
CONTINUOUS
 10
-1.0775970453217822
 20
9.9003424091228833
 11
-1.0775970453328785
 21
10.272277227722773
  0
ARC
  8
249
 62
50
  6
CONTINUOUS
 10
4.7383277284120546e-016
 20
8.4158415841584162
 40
2.4752475247524752
 50
90
 51
115.80751649764011
  0
ARC
  8
249
 62
50
  6
CONTINUOUS
 10
-1.8193069306930694
 20
9.653465346534654
 40
1.2376237623762376
 50
53.180106115578894
 51
119.34058157502375
  0
LINE
  8
249
 62
50
  6
CONTINUOUS
 10
-2.4257425742574261
 20
10.732329743673143
 11
-2.4257425742574261
 21
10.272277227722773
  0
LINE
  8
249
 62
50
  6
CONTINUOUS
 10
-1.0775970453217827
 20
10.644212046322659
 11
-1.0775970453328785
 21
10.272277227722773
  0
LINE
  8
249
 62
50
  6
CONTINUOUS
 10
-1.8193069306930696
 20
10.89108910891089
 11
-4.7383277284120546e-016
 21
10.89108910891089
  0
ARC
  8
249
 62
50
  6
CONTINUOUS
 10
-9.4766554568241092e-016
 20
12.128712871287128
 40
2.4752475247524752
 50
270
 51
295.80751649764011
  0
ARC
  8
249
 62
50
  6
CONTINUOUS
 10
1.8193069306930689
 20
10.89108910891089
 40
1.2376237623762376
 50
233.18010611557889
 51
299.34058157502375
  0
LINE
  8
249
 62
50
  6
CONTINUOUS
 10
2.4257425742574257
 20
9.8122247117724015
 11
2.4257425742574257
 21
10.272277227722773
  0
LINE
  8
249
 62
50
  6
CONTINUOUS
 10
1.0775970453217822
 20
9.9003424091228851
 11
1.077597045332878
 21
10.272277227722773
  0
ARC
  8
249
 62
50
  6
CONTINUOUS
 10
4.7383277284120546e-016
 20
8.4158415841584162
 40
2.4752475247524752
 50
64.192483502359892
 51
90
  0
ARC
  8
249
 62
50
  6
CONTINUOUS
 10
1.8193069306930694
 20
9.653465346534654
 40
1.2376237623762376
 50
60.659418424976252
 51
126.81989388442111
  0
LINE
  8
249
 62
50
  6
CONTINUOUS
 10
2.4257425742574257
 20
10.732329743673144
 11
2.4257425742574257
 21
10.272277227722773
  0
LINE
  8
249
 62
50
  6
CONTINUOUS
 10
1.0775970453217818
 20
10.644212046322661
 11
1.077597045332878
 21
10.272277227722773
  0
LINE
  8
249
 62
50
  6
CONTINUOUS
 10
1.8193069306930687
 20
10.89108910891089
 11
-4.7383277284120546e-016
 21
10.89108910891089
  0
LINE
  8
249
 62
50
  6
CONTINUOUS
 10
-2.42574257424539
 20
13.490099009907235
 11
-2.42574257424539
 21
14.936515960041827
  0
ARC
  8
249
 62
50
  6
CONTINUOUS
 10
-1.8193069306810326
 20
13.886138613867631
 40
1.2128712871287128
 50
47.540260940043446
 51
120.00000000000001
  0
ARC
  8
249
 62
50
  6
CONTINUOUS
 10
1.2037016048371597e-011
 20
13.366336633669611
 40
1.7326732673267327
 50
54.728638055913144
 51
125.27136194408686
  0
ARC
  8
249
 62
50
  6
CONTINUOUS
 10
1.8193069307051066
 20
13.886138613867631
 40
1.2128712871287128
 50
59.999999999999986
 51
132.45973905995655
  0
LINE
  8
249
 62
50
  6
CONTINUOUS
 10
2.4257425742694636
 20
14.936515960041827
 11
2.4257425742694636
 21
13.490099009907235
  0
LINE
  8
249
 62
50
  6
CONTINUOUS
 10
-1.0005315258543004
 20
14.780936689182219
 11
-1.0005315258543004
 21
13.490099009907235
  0
LINE
  8
249
 62
50
  6
CONTINUOUS
 10
1.0005315258783745
 20
14.780936689182219
 11
1.0005315258783745
 21
13.490099009907235
  0
LINE
  8
249
 62
50
  6
CONTINUOUS
 10
-1.8193069306810326
 20
15.099009900996345
 11
1.8193069307051066
 21
15.099009900996345
  0
LINE
  8
249
 62
50
  6
CONTINUOUS
 10
-1.2376237623642006
 20
3.4653465346597105
 11
-1.2376237623642006
 21
7.2494269328764567
  0
LINE
  8
249
 62
50
  6
CONTINUOUS
 10
-1.2376237623642006
 20
10.89108910891089
 11
-1.2376237623642006
 21
13.366336633669611
  0
LINE
  8
249
 62
50
  6
CONTINUOUS
 10
1.2376237623882747
 20
3.4653465346597021
 11
1.2376237623882747
 21
7.0328708350491951
  0
LINE
  8
249
 62
50
  6
CONTINUOUS
 10
1.2376237623882747
 20
10.89108910891089
 11
1.2376237623882747
 21
13.366336633669611
  0
LINE
  8
249
 62
50
  6
CONTINUOUS
 10
2.4257425742694636
 20
13.490099009907235
 11
-2.42574257424539
 21
13.490099009907235
  0
LINE
  8
249
 62
50
  6
CONTINUOUS
 10
-2.103960396027567
 20
13.490099009907235
 11
-2.103960396027567
 21
13.366336633669611
  0
LINE
  8
249
 62
50
  6
CONTINUOUS
 10
-2.103960396027567
 20
13.366336633669611
 11
2.1039603960516411
 21
13.366336633669611
  0
LINE
  8
249
 62
50
  6
CONTINUOUS
 10
2.1039603960516411
 20
13.366336633669611
 11
2.1039603960516411
 21
13.490099009907235
  0
LINE
  8
249
 62
5
  6
CONTINUOUS
 10
-1.0024752475127148
 20
3.230198019808225
 11
-1.0024752475127148
 21
7.2288541035828668
  0
LINE
  8
249
 62
5
  6
CONTINUOUS
 10
-1.0024752475127148
 20
10.89108910891089
 11
-1.0024752475127148
 21
13.366336633669611
  0
LINE
  8
249
 62
5
  6
CONTINUOUS
 10
1.0024752475367888
 20
3.2301980198082161
 11
1.0024752475367888
 21
7.0534436643427849
  0
LINE
  8
249
 62
5
  6
CONTINUOUS
 10
1.0024752475367888
 20
10.89108910891089
 11
1.0024752475367888
 21
13.366336633669611
  0
LINE
  8
249
 62
5
  6
DASHDOT
 10
1.2037016048371597e-011
 20
-3.217821782178218
 11
1.2037016048371597e-011
 21
15.594059405946838
  0
LINE
  8
0
 62
50
  6
CONTINUOUS
 10
-1.2376237623642006
 20
3.4653465346597105
 11
1.2042292355815361e-011
 21
2.2277227722834678
  0
LINE
  8
0
 62
50
  6
CONTINUOUS
 10
1.2042292355815361e-011
 20
2.2277227722834678
 11
1.2376237623882747
 21
3.4653465346597021
  0
LINE
  8
0
 62
50
  6
CONTINUOUS
 10
-1.2376237623642006
 20
3.4653465346597105
 11
1.2376237623882747
 21
3.4653465346597021
  0
LINE
  8
0
 62
5
  6
DASHDOT
 10
5.9405940594059405
 20
0.74257425742574257
 11
5.9405940594059405
 21
-3.217821782178218
  0
ARC
  8
0
 62
140
  6
HIDDEN
 10
4.3316831683168324
 20
9.1584158415841586
 40
0.49504950495049505
 50
0
 51
90
  0
LINE
  8
0
 62
140
  6
HIDDEN
 10
4.826732673267327
 20
9.1584158415841586
 11
4.826732673267327
 21
0.49504950495049505
  0
ARC
  8
0
 62
140
  6
HIDDEN
 10
5.3217821782178216
 20
0.49504950495049505
 40
0.49504950495049505
 50
180
 51
270
  0
LINE
  8
0
 62
140
  6
HIDDEN
 10
5.3217821782178216
 20
0
 11
7.7970297029702973
 21
0
  0
ENDBLK
  0
BLOCK
  8
0
 62
50
  6
CONTINUOUS
  2
TELL_1
 70
0
 10
-12.871287128721935
 20
0
  0
LINE
  8
0
 62
50
  6
CONTINUOUS
 10
-17.202970297029704
 20
-0.74257425742574257
 11
-16.336633663366335
 21
-0.74257425742574257
  0
LINE
  8
0
 62
50
  6
CONTINUOUS
 10
-15.594059405940595
 20
0
 11
-15.594059405940595
 21
9.653465346534654
  0
LINE
  8
0
 62
50
  6
CONTINUOUS
 10
-15.594059405940595
 20
9.653465346534654
 11
-10.148514851485148
 21
9.653465346534654
  0
LINE
  8
0
 62
50
  6
CONTINUOUS
 10
-10.148514851485148
 20
9.653465346534654
 11
-10.148514851485148
 21
0
  0
LINE
  8
0
 62
50
  6
CONTINUOUS
 10
-9.4059405940594054
 20
-0.74257425742574257
 11
-8.5396039603960396
 21
-0.74257425742574257
  0
LINE
  8
0
 62
50
  6
CONTINUOUS
 10
-8.5396039603960396
 20
-0.74257425742574257
 11
-8.5396039603960396
 21
-2.4752475247524752
  0
LINE
  8
0
 62
50
  6
CONTINUOUS
 10
-8.5396039603960396
 20
-2.4752475247524752
 11
-17.202970297029704
 21
-2.4752475247524752
  0
LINE
  8
0
 62
50
  6
CONTINUOUS
 10
-17.202970297029704
 20
-2.4752475247524752
 11
-17.202970297029704
 21
-0.74257425742574257
  0
ARC
  8
0
 62
50
  6
CONTINUOUS
 10
-16.336633663366335
 20
0
 40
0.74257425742574257
 50
270
 51
0
  0
ARC
  8
0
 62
50
  6
CONTINUOUS
 10
-9.4059405940594054
 20
0
 40
0.74257425742574257
 50
180
 51
270
  0
LINE
  8
0
 62
50
  6
CONTINUOUS
 10
-14.232673267326733
 20
9.653465346534654
 11
-14.232673267326733
 21
0.37128712871287128
  0
LINE
  8
0
 62
50
  6
CONTINUOUS
 10
-13.861386138613861
 20
0
 11
-11.881188118811881
 21
0
  0
LINE
  8
0
 62
50
  6
CONTINUOUS
 10
-11.509900990099009
 20
0.37128712871287128
 11
-11.509900990099009
 21
9.653465346534654
  0
ARC
  8
0
 62
50
  6
CONTINUOUS
 10
-13.861386138613861
 20
0.37128712871287128
 40
0.37128712871287128
 50
180
 51
270
  0
ARC
  8
0
 62
50
  6
CONTINUOUS
 10
-11.881188118811883
 20
0.37128712871287128
 40
0.37128712871287128
 50
270
 51
0
  0
ARC
  8
0
 62
50
  6
CONTINUOUS
 10
-12.871287128733973
 20
12.128712871294512
 40
2.4752475247524752
 50
244.19248350235989
 51
270
  0
ARC
  8
0
 62
50
  6
CONTINUOUS
 10
-14.690594059427044
 20
10.891089108918274
 40
1.2376237623762376
 50
240.65941842497625
 51
306.81989388442111
  0
LINE
  8
0
 62
50
  6
CONTINUOUS
 10
-15.297029702991399
 20
9.8122247117797823
 11
-15.297029702991399
 21
10.272277227730156
  0
LINE
  8
0
 62
50
  6
CONTINUOUS
 10
-13.948884174055756
 20
9.9003424091302694
 11
-13.948884174066851
 21
10.272277227730156
  0
ARC
  8
0
 62
50
  6
CONTINUOUS
 10
-12.871287128733973
 20
8.4158415841657987
 40
2.4752475247524752
 50
90
 51
115.80751649764011
  0
ARC
  8
0
 62
50
  6
CONTINUOUS
 10
-14.69059405942704
 20
9.6534653465420366
 40
1.2376237623762376
 50
53.180106115578894
 51
119.34058157502375
  0
LINE
  8
0
 62
50
  6
CONTINUOUS
 10
-15.297029702991399
 20
10.732329743680529
 11
-15.297029702991399
 21
10.272277227730156
  0
LINE
  8
0
 62
50
  6
CONTINUOUS
 10
-13.948884174055756
 20
10.644212046330042
 11
-13.948884174066851
 21
10.272277227730156
  0
LINE
  8
0
 62
50
  6
CONTINUOUS
 10
-14.69059405942704
 20
10.891089108918274
 11
-12.871287128733973
 21
10.891089108918274
  0
ARC
  8
0
 62
50
  6
CONTINUOUS
 10
-12.871287128733973
 20
12.128712871294512
 40
2.4752475247524752
 50
270
 51
295.80751649764011
  0
ARC
  8
0
 62
50
  6
CONTINUOUS
 10
-11.051980198040905
 20
10.891089108918274
 40
1.2376237623762376
 50
233.18010611557889
 51
299.34058157502375
  0
LINE
  8
0
 62
50
  6
CONTINUOUS
 10
-10.445544554476548
 20
9.8122247117797823
 11
-10.445544554476548
 21
10.272277227730156
  0
LINE
  8
0
 62
50
  6
CONTINUOUS
 10
-11.793690083412189
 20
9.9003424091302694
 11
-11.793690083401096
 21
10.272277227730156
  0
ARC
  8
0
 62
50
  6
CONTINUOUS
 10
-12.871287128733973
 20
8.4158415841657987
 40
2.4752475247524752
 50
64.192483502359892
 51
90
  0
ARC
  8
0
 62
50
  6
CONTINUOUS
 10
-11.051980198040905
 20
9.6534653465420366
 40
1.2376237623762376
 50
60.659418424976252
 51
126.81989388442111
  0
LINE
  8
0
 62
50
  6
CONTINUOUS
 10
-10.445544554476548
 20
10.732329743680529
 11
-10.445544554476548
 21
10.272277227730156
  0
LINE
  8
0
 62
50
  6
CONTINUOUS
 10
-11.793690083412192
 20
10.644212046330042
 11
-11.793690083401096
 21
10.272277227730156
  0
LINE
  8
0
 62
50
  6
CONTINUOUS
 10
-11.051980198040905
 20
10.891089108918274
 11
-12.871287128733973
 21
10.891089108918274
  0
LINE
  8
0
 62
50
  6
CONTINUOUS
 10
-15.297029702979364
 20
13.490099009914621
 11
-15.297029702979364
 21
14.93651596004921
  0
ARC
  8
0
 62
50
  6
CONTINUOUS
 10
-14.690594059415004
 20
13.886138613875016
 40
1.2128712871287128
 50
47.540260940043446
 51
120.00000000000001
  0
ARC
  8
0
 62
50
  6
CONTINUOUS
 10
-12.871287128721935
 20
13.366336633676998
 40
1.7326732673267327
 50
54.728638055913144
 51
125.27136194408686
  0
ARC
  8
0
 62
50
  6
CONTINUOUS
 10
-11.051980198028868
 20
13.886138613875016
 40
1.2128712871287128
 50
59.999999999999986
 51
132.45973905995655
  0
LINE
  8
0
 62
50
  6
CONTINUOUS
 10
-10.445544554464508
 20
14.93651596004921
 11
-10.445544554464508
 21
13.490099009914621
  0
LINE
  8
0
 62
50
  6
CONTINUOUS
 10
-13.871818654588274
 20
14.7809366891896
 11
-13.871818654588274
 21
13.490099009914621
  0
LINE
  8
0
 62
50
  6
CONTINUOUS
 10
-11.870755602855597
 20
14.7809366891896
 11
-11.870755602855597
 21
13.490099009914621
  0
LINE
  8
0
 62
50
  6
CONTINUOUS
 10
-14.690594059415004
 20
15.099009901003729
 11
-11.051980198028868
 21
15.099009901003729
  0
LINE
  8
0
 62
50
  6
CONTINUOUS
 10
-14.108910891098173
 20
10.891089108918274
 11
-14.108910891098173
 21
13.366336633676998
  0
LINE
  8
0
 62
50
  6
CONTINUOUS
 10
-11.633663366345699
 20
10.891089108918274
 11
-11.633663366345699
 21
13.366336633676998
  0
LINE
  8
0
 62
50
  6
CONTINUOUS
 10
-10.445544554464508
 20
13.490099009914621
 11
-15.297029702979364
 21
13.490099009914621
  0
LINE
  8
0
 62
50
  6
CONTINUOUS
 10
-14.97524752476154
 20
13.490099009914621
 11
-14.97524752476154
 21
13.366336633676998
  0
LINE
  8
0
 62
50
  6
CONTINUOUS
 10
-14.97524752476154
 20
13.366336633676998
 11
-10.767326732682331
 21
13.366336633676998
  0
LINE
  8
0
 62
50
  6
CONTINUOUS
 10
-10.767326732682331
 20
13.366336633676998
 11
-10.767326732682331
 21
13.490099009914621
  0
LINE
  8
0
 62
5
  6
CONTINUOUS
 10
-13.873762376246688
 20
10.891089108918274
 11
-13.873762376246688
 21
13.366336633676998
  0
LINE
  8
0
 62
5
  6
CONTINUOUS
 10
-11.868811881197184
 20
10.891089108918274
 11
-11.868811881197184
 21
13.366336633676998
  0
LINE
  8
0
 62
5
  6
DASHDOT
 10
-12.871287128721935
 20
-3.2178217821708346
 11
-12.871287128721935
 21
15.594059405954225
  0
ENDBLK
  0
ENDSEC
  0
SECTION
  2
ENTITIES
  0
INSERT
  8
0
 62
140
  6
HIDDEN
  2
4_70__TK_8_10__7_791_-
 10
0
 20
0
 41
1.0
 42
1.0
 50
0.0
  0
INSERT
  8
0
 62
50
  6
CONTINUOUS
  2
TELL_1
 10
-12.871287128721935
 20
0
 41
1.0
 42
1.0
 50
0.0
  0
ENDSEC
  0
EOF
