  0
SECTION
  2
HEADER
  9
$ACADVER
  1
AC1009
  9
$EXTMIN
 10
-9.0774751952712691
 20
-20.461262402364355
  9
$EXTMAX
 10
10.961579058480881
 20
4.5387375976356461
  9
$TEXTSTYLE
  7
STANDARD
  9
$DIMLFAC
 40
1
  9
$REGENMODE
 70
1
  9
$DRAGMODE
 70
2
  9
$DIMASO
 70
1
  9
$LTSCALE
 40
1.0000000000
  0
ENDSEC
  0
SECTION
  2
TABLES
  0
TABLE
  2
LTYPE
 70
4
  0
LTYPE
  2
CONTINUOUS
 70
64
  3
CONTINUOUS
 72
65
 73
0
 40
0.0000000000
  0
LTYPE
  2
HIDDEN
 70
64
  3
HIDDEN
 72
65
 73
2
 40
0.5000000000
 49
0.2500000000
 49
-0.2500000000
  0
LTYPE
  2
DOT
 70
64
  3
DOT
 72
65
 73
2
 40
0.2500000000
 49
0.0000000000
 49
-0.2500000000
  0
LTYPE
  2
DASHDOT
 70
64
  3
DASHDOT
 72
65
 73
4
 40
1.0000000000
 49
0.5000000000
 49
-0.2500000000
 49
0.0000000000
 49
-0.2500000000
  0
ENDTAB
  0
TABLE
  2
LAYER
 70
1
  0
LAYER
  2
0
 70
0
 62
2
  6
CONTINUOUS
  0
ENDTAB
  0
TABLE
  2
STYLE
 70
0
  0
STYLE
  2
Standard
 70
0
 40
0
 41
1
 50
0
 71
0
 42
2.5
  3
txt
  4

  0
ENDTAB
  0
ENDSEC
  0
SECTION
  2
BLOCKS
  0
BLOCK
  8
0
 62
140
  6
CONTINUOUS
  2
TELL_2
 70
0
 10
-5.3322724501180581
 20
-9.60523538104054
  0
LINE
  8
0
 62
50
  6
CONTINUOUS
 10
-4.7008548010238611
 20
-9.2885792695798912
 11
-5.06649778340722
 21
-9.9218914925057931
  0
LINE
  8
0
 62
50
  6
CONTINUOUS
 10
-5.06649778340722
 20
-9.9218914925057931
 11
-5.0898601394011118
 21
-9.9218914925057931
  0
LINE
  8
0
 62
50
  6
CONTINUOUS
 10
-5.0898601408529531
 20
-9.9218914925057931
 11
-5.0906017946449369
 21
-9.9203204595239551
  0
LINE
  8
0
 62
50
  6
CONTINUOUS
 10
-5.0906017946449369
 20
-9.9203204585002087
 11
-5.0939017802105377
 21
-9.9218914925057931
  0
LINE
  8
0
 62
50
  6
CONTINUOUS
 10
-5.093901785440468
 20
-9.9218914925057931
 11
-5.1558127398423537
 21
-9.9218914925057931
  0
LINE
  8
0
 62
50
  6
CONTINUOUS
 10
-5.1558127419873081
 20
-9.9218914925057931
 11
-5.1592442111505532
 21
-9.9197964479731748
  0
LINE
  8
0
 62
50
  6
CONTINUOUS
 10
-5.1592442111505532
 20
-9.9197964479388201
 11
-5.1643797672386622
 21
-9.9218914925057931
  0
LINE
  8
0
 62
50
  6
CONTINUOUS
 10
-5.1643797709066286
 20
-9.9218914925057931
 11
-5.2570360648364902
 21
-9.9218914925057931
  0
LINE
  8
0
 62
50
  6
CONTINUOUS
 10
-5.2570360686925302
 20
-9.9218914925057931
 11
-5.2619748472561527
 21
-9.9203204585995799
  0
LINE
  8
0
 62
50
  6
CONTINUOUS
 10
-5.2619748472561527
 20
-9.9203204585507638
 11
-5.2657033944675131
 21
-9.9218914925057931
  0
LINE
  8
0
 62
50
  6
CONTINUOUS
 10
-5.2657033977707792
 20
-9.9218914925057931
 11
-5.9636900992189146
 21
-9.9218914925057931
  0
LINE
  8
0
 62
50
  6
CONTINUOUS
 10
-5.9636900992189146
 20
-9.9218914925057931
 11
-5.9636900992189146
 21
-9.499683343888524
  0
LINE
  8
0
 62
50
  6
CONTINUOUS
 10
-5.9636900992189146
 20
-9.499683343888524
 11
-5.06649778340722
 21
-9.499683343888524
  0
ARC
  8
0
 62
50
  6
CONTINUOUS
 10
-5.06649778340722
 20
-9.0774751952712691
 40
0.42220814861726275
 50
270.0000000000004
 51
330.00000000072299
  0
ENDBLK
  0
BLOCK
  8
0
 62
140
  6
CONTINUOUS
  2
TELL_3
 70
0
 10
-8.3894923799427872
 20
-9.6052353810411706
  0
LINE
  8
0
 62
50
  6
CONTINUOUS
 10
-8.6552670466539947
 20
-9.9218914925057931
 11
-9.0209100290373527
 21
-9.2885792695798912
  0
ARC
  8
0
 62
50
  6
CONTINUOUS
 10
-8.6552670466539947
 20
-9.0774751952712567
 40
0.42220814861726846
 50
209.9999999994765
 51
270.0000000000008
  0
LINE
  8
0
 62
50
  6
CONTINUOUS
 10
-8.6552670466539947
 20
-9.499683343888524
 11
-7.7580747308422993
 21
-9.499683343888524
  0
LINE
  8
0
 62
50
  6
CONTINUOUS
 10
-7.7580747308422993
 20
-9.499683343888524
 11
-7.7580747308422993
 21
-9.9218914925057931
  0
LINE
  8
0
 62
50
  6
CONTINUOUS
 10
-7.7580747308422993
 20
-9.9218914925057931
 11
-8.4560614322904222
 21
-9.9218914925057931
  0
LINE
  8
0
 62
50
  6
CONTINUOUS
 10
-8.4560614355937478
 20
-9.9218914925057931
 11
-8.4597899828050611
 21
-9.9203204585507763
  0
LINE
  8
0
 62
50
  6
CONTINUOUS
 10
-8.4597899828050611
 20
-9.9203204585995799
 11
-8.4647287613686597
 21
-9.9218914925057931
  0
LINE
  8
0
 62
50
  6
CONTINUOUS
 10
-8.4647287652247485
 20
-9.9218914925057931
 11
-8.5573850591545977
 21
-9.9218914925057931
  0
LINE
  8
0
 62
50
  6
CONTINUOUS
 10
-8.5573850628225401
 20
-9.9218914925057931
 11
-8.5625206189106606
 21
-9.9197964479388201
  0
LINE
  8
0
 62
50
  6
CONTINUOUS
 10
-8.5625206189106606
 20
-9.9197964479731748
 11
-8.5659520880739048
 21
-9.9218914925057931
  0
LINE
  8
0
 62
50
  6
CONTINUOUS
 10
-8.5659520902188468
 20
-9.9218914925057931
 11
-8.6278630446207583
 21
-9.9218914925057931
  0
LINE
  8
0
 62
50
  6
CONTINUOUS
 10
-8.6278630498506637
 20
-9.9218914925057931
 11
-8.6311630354162769
 21
-9.9203204585002087
  0
LINE
  8
0
 62
50
  6
CONTINUOUS
 10
-8.6311630354162769
 20
-9.9203204595239782
 11
-8.6319046892082483
 21
-9.9218914925057931
  0
LINE
  8
0
 62
50
  6
CONTINUOUS
 10
-8.6319046906601145
 20
-9.9218914925057931
 11
-8.6552670466539947
 21
-9.9218914925057931
  0
ENDBLK
  0
BLOCK
  8
0
 62
5
  6
CONTINUOUS
  2
TELL_4
 70
0
 10
-6.8608824150356558
 20
-19.632678910668265
  0
LINE
  8
0
 62
50
  6
CONTINUOUS
 10
-5.06649778340722
 20
-19.632678910702968
 11
-5.1070707468967713
 21
-20.096430005425365
  0
ARC
  8
0
 62
50
  6
CONTINUOUS
 10
-5.1596459367858731
 20
-20.091830272324248
 40
0.052776018577158537
 50
270
 51
354.99999999665079
  0
LINE
  8
0
 62
50
  6
CONTINUOUS
 10
-5.159645936784889
 20
-20.144606290901404
 11
-8.5621188932763364
 21
-20.144606290901404
  0
ARC
  8
0
 62
50
  6
CONTINUOUS
 10
-8.5621188932753469
 20
-20.091830272324248
 40
0.052776018577158537
 50
185.00000000334916
 51
270
  0
LINE
  8
0
 62
50
  6
CONTINUOUS
 10
-8.6146940831644478
 20
-20.096430005425365
 11
-8.6552670466540089
 21
-19.632678910702953
  0
LINE
  8
0
 62
5
  6
CONTINUOUS
 10
-8.6146940831644478
 20
-20.096430005425365
 11
-5.1070707468968006
 21
-20.096430005425677
  0
ENDBLK
  0
BLOCK
  8
0
 62
50
  6
CONTINUOUS
  2
TELL_1
 70
0
 10
-6.86088241503061
 20
-9.1830272324255731
  0
INSERT
  8
0
 62
140
  6
CONTINUOUS
  2
TELL_2
 10
-5.3322724501180581
 20
-9.60523538104054
 41
1.0
 42
1.0
 50
0.0
  0
INSERT
  8
0
 62
140
  6
CONTINUOUS
  2
TELL_3
 10
-8.3894923799427872
 20
-9.6052353810411706
 41
1.0
 42
1.0
 50
0.0
  0
LINE
  8
0
 62
50
  6
CONTINUOUS
 10
-8.6552670466539947
 20
-9.9218914925057931
 11
-9.0209100290373527
 21
-9.2885792695798912
  0
LINE
  8
0
 62
50
  6
CONTINUOUS
 10
-9.0209100290373527
 20
-9.2885792695798912
 11
-9.0157254863872733
 21
-9.2885792695798912
  0
LINE
  8
0
 62
50
  6
CONTINUOUS
 10
-4.7008548010238611
 20
-9.2885792695798912
 11
-5.06649778340722
 21
-9.9218914925057931
  0
LINE
  8
0
 62
50
  6
CONTINUOUS
 10
-4.706039343673952
 20
-9.2885792695798912
 11
-4.7008548010238611
 21
-9.2885792695798912
  0
LINE
  8
0
 62
50
  6
CONTINUOUS
 10
-8.6319046892082483
 20
-9.9218914925057931
 11
-8.6311630354162769
 21
-9.9203204595239782
  0
LINE
  8
0
 62
50
  6
CONTINUOUS
 10
-5.0906017946449369
 20
-9.9203204595239551
 11
-5.0898601408529531
 21
-9.9218914925057931
  0
LINE
  8
0
 62
50
  6
CONTINUOUS
 10
-8.5659520880739048
 20
-9.9218914925057931
 11
-8.5625206189106606
 21
-9.9197964479731748
  0
LINE
  8
0
 62
50
  6
CONTINUOUS
 10
-8.6311630354162769
 20
-9.9203204585002087
 11
-8.6278630498506637
 21
-9.9218914925057931
  0
LINE
  8
0
 62
50
  6
CONTINUOUS
 10
-5.0939017802105377
 20
-9.9218914925057931
 11
-5.0906017946449369
 21
-9.9203204585002087
  0
LINE
  8
0
 62
50
  6
CONTINUOUS
 10
-5.1592442111505532
 20
-9.9197964479731748
 11
-5.1558127419873081
 21
-9.9218914925057931
  0
LINE
  8
0
 62
50
  6
CONTINUOUS
 10
-8.6552670466539947
 20
-9.9218914925057931
 11
-8.6319046906601145
 21
-9.9218914925057931
  0
LINE
  8
0
 62
50
  6
CONTINUOUS
 10
-5.0898601394011118
 20
-9.9218914925057931
 11
-5.06649778340722
 21
-9.9218914925057931
  0
LINE
  8
0
 62
50
  6
CONTINUOUS
 10
-5.1558127398423537
 20
-9.9218914925057931
 11
-5.093901785440468
 21
-9.9218914925057931
  0
LINE
  8
0
 62
50
  6
CONTINUOUS
 10
-8.4647287613686597
 20
-9.9218914925057931
 11
-8.4597899828050611
 21
-9.9203204585995799
  0
LINE
  8
0
 62
50
  6
CONTINUOUS
 10
-8.5625206189106606
 20
-9.9197964479388201
 11
-8.5573850628225401
 21
-9.9218914925057931
  0
LINE
  8
0
 62
50
  6
CONTINUOUS
 10
-5.1643797672386622
 20
-9.9218914925057931
 11
-5.1592442111505532
 21
-9.9197964479388201
  0
LINE
  8
0
 62
50
  6
CONTINUOUS
 10
-5.2619748472561527
 20
-9.9203204585995799
 11
-5.2570360686925302
 21
-9.9218914925057931
  0
LINE
  8
0
 62
50
  6
CONTINUOUS
 10
-8.6278630446207583
 20
-9.9218914925057931
 11
-8.5659520902188468
 21
-9.9218914925057931
  0
LINE
  8
0
 62
50
  6
CONTINUOUS
 10
-8.4597899828050611
 20
-9.9203204585507763
 11
-8.4560614355937478
 21
-9.9218914925057931
  0
LINE
  8
0
 62
50
  6
CONTINUOUS
 10
-5.2657033944675131
 20
-9.9218914925057931
 11
-5.2619748472561527
 21
-9.9203204585507638
  0
LINE
  8
0
 62
50
  6
CONTINUOUS
 10
-7.7580747308422993
 20
-9.499683343888524
 11
-7.7580747308422993
 21
-9.9218914925057931
  0
LINE
  8
0
 62
50
  6
CONTINUOUS
 10
-8.5573850591545977
 20
-9.9218914925057931
 11
-8.4647287652247485
 21
-9.9218914925057931
  0
LINE
  8
0
 62
50
  6
CONTINUOUS
 10
-5.2570360648364902
 20
-9.9218914925057931
 11
-5.1643797709066286
 21
-9.9218914925057931
  0
LINE
  8
0
 62
50
  6
CONTINUOUS
 10
-5.9636900992189146
 20
-9.9218914925057931
 11
-5.2657033977707792
 21
-9.9218914925057931
  0
LINE
  8
0
 62
50
  6
CONTINUOUS
 10
-8.4560614322904222
 20
-9.9218914925057931
 11
-7.7580747308422993
 21
-9.9218914925057931
  0
LINE
  8
0
 62
50
  6
CONTINUOUS
 10
-5.9636900992189146
 20
-9.499683343888524
 11
-5.9636900992189146
 21
-9.9218914925057931
  0
LINE
  8
0
 62
50
  6
CONTINUOUS
 10
-9.077475195271262
 20
-7.7052987122651349
 11
-9.077475195271262
 21
-9.0774751952712567
  0
LINE
  8
0
 62
50
  6
CONTINUOUS
 10
-9.077475195271262
 20
-7.7052987122651349
 11
-8.7608190838083111
 21
-7.7052987122651349
  0
LINE
  8
0
 62
50
  6
CONTINUOUS
 10
-4.6442896347899509
 20
-7.7052987122651349
 11
-4.6442896347899509
 21
-9.0774751952712567
  0
LINE
  8
0
 62
50
  6
CONTINUOUS
 10
-4.9609457462529027
 20
-7.7052987122651349
 11
-4.9609457462529027
 21
-9.0774751952712567
  0
LINE
  8
0
 62
50
  6
CONTINUOUS
 10
-4.9609457462529027
 20
-7.7052987122651349
 11
-4.6442896347899509
 21
-7.7052987122651349
  0
LINE
  8
0
 62
50
  6
CONTINUOUS
 10
-8.7608190838083111
 20
-7.7052987122651349
 11
-8.7608190838083111
 21
-9.0774751952712567
  0
LINE
  8
0
 62
50
  6
CONTINUOUS
 10
-8.6552670466539947
 20
-9.1830272324255731
 11
-5.06649778340722
 21
-9.1830272324255731
  0
LINE
  8
0
 62
50
  6
CONTINUOUS
 10
-4.9609457462529027
 20
-8.9719231581169385
 11
-4.6442896347899509
 21
-8.9719231581169385
  0
LINE
  8
0
 62
50
  6
CONTINUOUS
 10
-4.9609457462529027
 20
-9.0774751952712567
 11
-4.9918612221673593
 21
-9.152111756511129
  0
LINE
  8
0
 62
50
  6
CONTINUOUS
 10
-4.9918612221673593
 20
-9.152111756511129
 11
-5.06649778340722
 21
-9.1830272324255731
  0
LINE
  8
0
 62
50
  6
CONTINUOUS
 10
-8.6552670466539947
 20
-9.1830272324255731
 11
-8.7299036078938794
 21
-9.152111756511129
  0
LINE
  8
0
 62
50
  6
CONTINUOUS
 10
-8.7299036078938794
 20
-9.152111756511129
 11
-8.7608190838083111
 21
-9.0774751952712567
  0
LINE
  8
0
 62
50
  6
CONTINUOUS
 10
-5.06649778340722
 20
-9.499683343888524
 11
-5.9636900992189146
 21
-9.499683343888524
  0
LINE
  8
0
 62
50
  6
CONTINUOUS
 10
-5.9636900992189146
 20
-9.499683343888524
 11
-7.7580747308422993
 21
-9.499683343888524
  0
LINE
  8
0
 62
50
  6
CONTINUOUS
 10
-7.7580747308422993
 20
-9.499683343888524
 11
-8.6552670466539947
 21
-9.499683343888524
  0
LINE
  8
0
 62
50
  6
CONTINUOUS
 10
-9.077475195271262
 20
-8.9719231581169385
 11
-8.7608190838083111
 21
-8.9719231581169385
  0
ARC
  8
0
 62
50
  6
CONTINUOUS
 10
-5.06649778340722
 20
-9.0774751952712691
 40
0.42220814861726275
 50
270.0000000000004
 51
330.00000000072299
  0
ARC
  8
0
 62
50
  6
CONTINUOUS
 10
-5.06649778340722
 20
-9.0774751952712691
 40
0.42220814861726275
 50
330.00000000072299
 51
0
  0
ARC
  8
0
 62
50
  6
CONTINUOUS
 10
-8.6552670466539947
 20
-9.0774751952712567
 40
0.42220814861726846
 50
180
 51
209.9999999994765
  0
ARC
  8
0
 62
50
  6
CONTINUOUS
 10
-8.6552670466539947
 20
-9.0774751952712567
 40
0.42220814861726846
 50
209.9999999994765
 51
270.0000000000008
  0
LINE
  8
0
 62
50
  6
CONTINUOUS
 10
-8.6552670466539947
 20
-19.632678910702968
 11
-5.0664977834072138
 21
-19.632678910702968
  0
LINE
  8
0
 62
50
  6
CONTINUOUS
 10
-5.06649778340722
 20
-9.9218914925057966
 11
-5.06649778340722
 21
-19.632678910702968
  0
LINE
  8
0
 62
50
  6
CONTINUOUS
 10
-8.655267046654
 20
-9.9218914925057966
 11
-8.655267046654
 21
-19.632678910702968
  0
LINE
  8
0
 62
5
  6
CONTINUOUS
 10
-5.3831538948752167
 20
-10.027443529657075
 11
-5.3831538948752167
 21
-19.527126873548649
  0
LINE
  8
0
 62
5
  6
CONTINUOUS
 10
-8.338610935196094
 20
-10.027443529657075
 11
-8.338610935196094
 21
-19.527126873548649
  0
LINE
  8
0
 62
50
  6
CONTINUOUS
 10
-7.7580747308423046
 20
-14.249525015832797
 11
-7.7580747308423046
 21
-14.882837238758698
  0
LINE
  8
0
 62
50
  6
CONTINUOUS
 10
-5.9636900992189146
 20
-14.882837238758698
 11
-5.9636900992189146
 21
-14.249525015832797
  0
LINE
  8
0
 62
50
  6
CONTINUOUS
 10
-5.9636900992189146
 20
-10.555203715431698
 11
-5.9636900992189146
 21
-9.9218914925057966
  0
LINE
  8
0
 62
50
  6
CONTINUOUS
 10
-7.7580747308423046
 20
-10.555203715431698
 11
-7.7580747308423046
 21
-9.9218914925057966
  0
LINE
  8
0
 62
140
  6
CONTINUOUS
 10
-6.9453240447540709
 20
-15.576313165592214
 11
-6.9453240447540647
 21
-16.722610203628793
  0
LINE
  8
0
 62
140
  6
CONTINUOUS
 10
-6.7764407853071553
 20
-16.722610203628793
 11
-6.7764407853071607
 21
-15.576313165592214
  0
LINE
  8
0
 62
140
  6
CONTINUOUS
 10
-6.7600733610757704
 20
-12.411184015034063
 11
-6.7764407853071607
 21
-12.409752050962702
  0
LINE
  8
0
 62
140
  6
CONTINUOUS
 10
-6.7764407853071607
 20
-12.483638476970729
 11
-6.86088241503061
 21
-12.476250791640274
  0
LINE
  8
0
 62
140
  6
CONTINUOUS
 10
-6.86088241503061
 20
-12.476250791640274
 11
-6.9453240447540709
 21
-12.483638476970729
  0
LINE
  8
0
 62
140
  6
CONTINUOUS
 10
-6.9453240447540709
 20
-12.409752050962702
 11
-6.9616914689854497
 21
-12.411184015034063
  0
LINE
  8
0
 62
140
  6
CONTINUOUS
 10
-6.9453240447540709
 20
-12.409752050962702
 11
-6.9453240447540709
 21
-13.556049088999281
  0
LINE
  8
0
 62
140
  6
CONTINUOUS
 10
-6.9616914689854497
 20
-13.554617124927919
 11
-6.9453240447540709
 21
-13.556049088999281
  0
LINE
  8
0
 62
140
  6
CONTINUOUS
 10
-6.9453240447540709
 20
-13.482162662991254
 11
-6.86088241503061
 21
-13.489550348321709
  0
LINE
  8
0
 62
140
  6
CONTINUOUS
 10
-6.86088241503061
 20
-13.489550348321709
 11
-6.7764407853071607
 21
-13.482162662991254
  0
LINE
  8
0
 62
140
  6
CONTINUOUS
 10
-6.7764407853071607
 20
-13.556049088999281
 11
-6.7600733610757704
 21
-13.554617124927919
  0
LINE
  8
0
 62
140
  6
CONTINUOUS
 10
-6.7764407853071607
 20
-13.556049088999281
 11
-6.7764407853071607
 21
-12.409752050962702
  0
LINE
  8
0
 62
50
  6
CONTINUOUS
 10
-8.1802828794595737
 20
-14.882837238758698
 11
-8.1802828794595666
 21
-18.577158539159797
  0
LINE
  8
0
 62
50
  6
CONTINUOUS
 10
-8.1802828794595737
 20
-14.882837238758698
 11
-5.5414819506016464
 21
-14.882837238758698
  0
LINE
  8
0
 62
140
  6
CONTINUOUS
 10
-6.7600733610757704
 20
-15.577745129663588
 11
-6.7764407853071607
 21
-15.576313165592214
  0
LINE
  8
0
 62
50
  6
CONTINUOUS
 10
-5.5414819506016464
 20
-14.249525015832797
 11
-8.1802828794595737
 21
-14.249525015832797
  0
LINE
  8
0
 62
50
  6
CONTINUOUS
 10
-8.1802828794595737
 20
-10.871859826894649
 11
-5.5414819506016464
 21
-10.871859826894649
  0
LINE
  8
0
 62
140
  6
CONTINUOUS
 10
-6.7600733610757642
 20
-16.721178239557432
 11
-6.7764407853071553
 21
-16.722610203628793
  0
LINE
  8
0
 62
140
  6
CONTINUOUS
 10
-6.7764407853071553
 20
-16.648723777620766
 11
-6.8608824150306038
 21
-16.656111462951234
  0
LINE
  8
0
 62
140
  6
CONTINUOUS
 10
-6.8608824150306038
 20
-16.656111462951234
 11
-6.9453240447540647
 21
-16.648723777620766
  0
LINE
  8
0
 62
140
  6
CONTINUOUS
 10
-6.9453240447540647
 20
-16.722610203628793
 11
-6.9616914689854434
 21
-16.721178239557432
  0
LINE
  8
0
 62
140
  6
CONTINUOUS
 10
-6.9616914689854497
 20
-15.577745129663588
 11
-6.9453240447540709
 21
-15.576313165592214
  0
LINE
  8
0
 62
140
  6
CONTINUOUS
 10
-6.9453240447540647
 20
-15.65019959160024
 11
-6.8608824150306038
 21
-15.642811906269786
  0
LINE
  8
0
 62
140
  6
CONTINUOUS
 10
-6.8608824150306038
 20
-15.642811906269786
 11
-6.7764407853071553
 21
-15.65019959160024
  0
LINE
  8
0
 62
50
  6
CONTINUOUS
 10
-5.5414819506016402
 20
-18.577158539159797
 11
-8.1802828794595666
 21
-18.577158539159797
  0
LINE
  8
0
 62
50
  6
CONTINUOUS
 10
-8.1802828794595666
 20
-18.260502427696846
 11
-5.5414819506016402
 21
-18.260502427696846
  0
LINE
  8
0
 62
50
  6
CONTINUOUS
 10
-5.5414819506016464
 20
-14.882837238758698
 11
-5.5414819506016402
 21
-18.577158539159797
  0
LINE
  8
0
 62
50
  6
CONTINUOUS
 10
-5.5414819506016464
 20
-10.555203715431698
 11
-5.5414819506016464
 21
-14.249525015832797
  0
LINE
  8
0
 62
50
  6
CONTINUOUS
 10
-8.1802828794595737
 20
-10.555203715431698
 11
-8.1802828794595737
 21
-14.249525015832797
  0
LINE
  8
0
 62
50
  6
CONTINUOUS
 10
-8.1802828794595737
 20
-10.555203715431698
 11
-5.5414819506016464
 21
-10.555203715431698
  0
CIRCLE
  8
0
 62
50
  6
CONTINUOUS
 10
-6.86088241503061
 20
-12.982900569980991
 40
0.66497783407220223
  0
ARC
  8
0
 62
140
  6
CONTINUOUS
 10
-6.86088241503061
 20
-12.982900569980991
 40
0.58053620434874442
 50
100.00000000000011
 51
260
  0
ARC
  8
0
 62
140
  6
CONTINUOUS
 10
-6.86088241503061
 20
-12.982900569980991
 40
0.5805362043487432
 50
280
 51
79.999999999999829
  0
CIRCLE
  8
0
 62
50
  6
CONTINUOUS
 10
-6.8608824150306038
 20
-16.149461684610479
 40
0.66497783407216982
  0
ARC
  8
0
 62
140
  6
CONTINUOUS
 10
-6.8608824150306038
 20
-16.149461684610504
 40
0.58053620434874387
 50
279.99999999999994
 51
80
  0
ARC
  8
0
 62
140
  6
CONTINUOUS
 10
-6.8608824150306038
 20
-16.149461684610504
 40
0.58053620434874387
 50
99.999999999999886
 51
260
  0
LINE
  8
0
 62
50
  6
CONTINUOUS
 10
-7.7580747308423046
 20
-18.577158539159797
 11
-7.7580747308423046
 21
-19.632678910702968
  0
LINE
  8
0
 62
50
  6
CONTINUOUS
 10
-5.9636900992189146
 20
-18.577158539159797
 11
-5.9636900992189146
 21
-19.632678910702968
  0
LINE
  8
0
 62
140
  6
HIDDEN
 10
-7.7580747308423046
 20
-10.555203715431698
 11
-7.7580747308423046
 21
-14.249525015832797
  0
LINE
  8
0
 62
140
  6
HIDDEN
 10
-5.9636900992189146
 20
-10.555203715431698
 11
-5.9636900992189146
 21
-14.249525015832797
  0
LINE
  8
0
 62
140
  6
HIDDEN
 10
-7.7580747308423046
 20
-14.882837238758698
 11
-7.7580747308423046
 21
-18.577158539159797
  0
LINE
  8
0
 62
140
  6
HIDDEN
 10
-5.9636900992189146
 20
-14.882837238758698
 11
-5.9636900992189146
 21
-18.577158539159797
  0
INSERT
  8
0
 62
5
  6
CONTINUOUS
  2
TELL_4
 10
-6.8608824150356558
 20
-19.632678910668265
 41
1.0
 42
1.0
 50
0.0
  0
LINE
  8
0
 62
5
  6
DASHDOT
 10
-6.86088241503061
 20
-20.461262402364355
 11
-6.86088241503061
 21
-8.8663711209626221
  0
ENDBLK
  0
BLOCK
  8
0
 62
50
  6
CONTINUOUS
  2
TELL_6
 70
0
 10
-6.86088241503061
 20
-1.0027443529660123
  0
LINE
  8
0
 62
50
  6
CONTINUOUS
 10
-8.3386109351960975
 20
-1.0027443529660085
 11
-5.3831538948752167
 21
-1.002744352966001
  0
LINE
  8
0
 62
50
  6
CONTINUOUS
 10
-5.0664977834122658
 20
-0.68608824150304937
 11
-5.0664977834122746
 21
0.68608824150307302
  0
LINE
  8
0
 62
50
  6
CONTINUOUS
 10
-5.3831538948752256
 20
1.0027443529660234
 11
-5.9636900992239701
 21
1.0027443529660227
  0
LINE
  8
0
 62
50
  6
CONTINUOUS
 10
-5.9636900992239701
 20
1.0027443529660227
 11
-5.9636900992239701
 21
0.79164027865738851
  0
LINE
  8
0
 62
50
  6
CONTINUOUS
 10
-5.9636900992239701
 20
0.79164027865738851
 11
-5.3831538948752256
 21
0.79164027865738928
  0
LINE
  8
0
 62
50
  6
CONTINUOUS
 10
-5.2776018577209083
 20
0.68608824150307224
 11
-5.2776018577208994
 21
-0.68608824150304959
  0
LINE
  8
0
 62
50
  6
CONTINUOUS
 10
-5.3831538948752167
 20
-0.79164027865736686
 11
-8.3386109351960975
 21
-0.7916402786573743
  0
LINE
  8
0
 62
50
  6
CONTINUOUS
 10
-8.4441629723504157
 20
-0.68608824150305736
 11
-8.444162972350421
 21
0.68608824150306469
  0
LINE
  8
0
 62
50
  6
CONTINUOUS
 10
-8.3386109351961046
 20
0.79164027865738185
 11
-7.7580747308473601
 21
0.79164027865738251
  0
LINE
  8
0
 62
50
  6
CONTINUOUS
 10
-7.7580747308473601
 20
0.79164027865738251
 11
-7.7580747308473601
 21
1.0027443529660167
  0
LINE
  8
0
 62
50
  6
CONTINUOUS
 10
-7.7580747308473601
 20
1.0027443529660167
 11
-8.3386109351961046
 21
1.0027443529660161
  0
LINE
  8
0
 62
50
  6
CONTINUOUS
 10
-8.6552670466590556
 20
0.68608824150306402
 11
-8.6552670466590484
 21
-0.68608824150305758
  0
ARC
  8
0
 62
50
  6
CONTINUOUS
 10
-5.3831538948752256
 20
0.68608824150307224
 40
0.10555203715431707
 50
0
 51
90
  0
ARC
  8
0
 62
50
  6
CONTINUOUS
 10
-8.3386109351961046
 20
0.68608824150306469
 40
0.10555203715431707
 50
90
 51
180
  0
ARC
  8
0
 62
50
  6
CONTINUOUS
 10
-5.3831538948752167
 20
-0.6860882415030497
 40
0.10555203715431707
 50
270
 51
0
  0
ARC
  8
0
 62
50
  6
CONTINUOUS
 10
-8.3386109351960975
 20
-0.68608824150305725
 40
0.10555203715431707
 50
180
 51
270
  0
ARC
  8
0
 62
50
  6
CONTINUOUS
 10
-5.3831538948752256
 20
0.68608824150307224
 40
0.31665611146295125
 50
0
 51
90
  0
ARC
  8
0
 62
50
  6
CONTINUOUS
 10
-8.3386109351961046
 20
0.68608824150306469
 40
0.31665611146295125
 50
90
 51
180
  0
ARC
  8
0
 62
50
  6
CONTINUOUS
 10
-5.3831538948752167
 20
-0.6860882415030497
 40
0.31665611146295125
 50
270
 51
0
  0
ARC
  8
0
 62
50
  6
CONTINUOUS
 10
-8.3386109351960975
 20
-0.68608824150305725
 40
0.31665611146295125
 50
180
 51
270
  0
ENDBLK
  0
BLOCK
  8
0
 62
50
  6
CONTINUOUS
  2
TELL_7
 70
0
 10
-6.8608824150411651
 20
1.0027443529691786
  0
LINE
  8
0
 62
50
  6
CONTINUOUS
 10
-6.2030767566475582
 20
0.89719231581170822
 11
-6.1747941735325949
 21
0.79164027865739117
  0
LINE
  8
0
 62
50
  6
CONTINUOUS
 10
-6.1747941735325949
 20
0.79164027865739117
 11
-5.5131993674917412
 21
0.79164027865739817
  0
LINE
  8
0
 62
50
  6
CONTINUOUS
 10
-5.5131993674917412
 20
0.79164027865739817
 11
-5.3303778762980585
 21
0.68608824150308123
  0
LINE
  8
0
 62
50
  6
CONTINUOUS
 10
-5.3303778762980585
 20
0.68608824150308123
 11
-5.3303778762980576
 21
0.26388009288581304
  0
LINE
  8
0
 62
50
  6
CONTINUOUS
 10
-5.3303778762980576
 20
0.26388009288581304
 11
-6.174794173532594
 21
0.26388009288580599
  0
LINE
  8
0
 62
50
  6
CONTINUOUS
 10
-6.174794173532594
 20
0.26388009288580599
 11
-6.2030767566475573
 21
0.3694321300401196
  0
LINE
  8
0
 62
50
  6
CONTINUOUS
 10
-7.5186880734237578
 20
0.36943213004012093
 11
-7.5469706565387149
 21
0.26388009288580339
  0
LINE
  8
0
 62
50
  6
CONTINUOUS
 10
-7.5469706565387149
 20
0.26388009288580339
 11
-8.3913869537732513
 21
0.26388009288579634
  0
LINE
  8
0
 62
50
  6
CONTINUOUS
 10
-8.3913869537732513
 20
0.26388009288579634
 11
-8.3913869537732566
 21
0.68608824150306469
  0
LINE
  8
0
 62
50
  6
CONTINUOUS
 10
-8.3913869537732566
 20
0.68608824150306469
 11
-8.2085654625795819
 21
0.79164027865738185
  0
LINE
  8
0
 62
50
  6
CONTINUOUS
 10
-8.2085654625795819
 20
0.79164027865738185
 11
-7.5469706565387193
 21
0.79164027865738895
  0
LINE
  8
0
 62
50
  6
CONTINUOUS
 10
-7.5469706565387193
 20
0.79164027865738895
 11
-7.5186880734237622
 21
0.897192315811706
  0
LINE
  8
0
 62
50
  6
CONTINUOUS
 10
-7.5186880734237622
 20
0.897192315811706
 11
-6.2030767566475582
 21
0.89719231581170822
  0
LINE
  8
0
 62
50
  6
CONTINUOUS
 10
-7.5186880734237578
 20
0.36943213004012093
 11
-6.2030767566475573
 21
0.3694321300401226
  0
ENDBLK
  0
BLOCK
  8
0
 62
5
  6
CONTINUOUS
  2
TELL_8
 70
0
 10
-5.7875746216310366
 20
1.2040574312271375
  0
LINE
  8
0
 62
5
  6
CONTINUOUS
 10
-8.1802825927734375
 20
1.1701276302337646
 11
-8.0310096740722656
 21
1.3194010257720947
  0
LINE
  8
0
 62
5
  6
CONTINUOUS
 10
-7.8817362785339355
 20
1.3194010257720947
 11
-8.1802825927734375
 21
1.0208543539047241
  0
LINE
  8
0
 62
5
  6
CONTINUOUS
 10
-8.0491189956665039
 20
1.0027449131011963
 11
-7.7324628829956055
 21
1.3194010257720947
  0
LINE
  8
0
 62
5
  6
CONTINUOUS
 10
-7.5831899642944336
 20
1.3194010257720947
 11
-7.899846076965332
 21
1.0027449131011963
  0
LINE
  8
0
 62
5
  6
CONTINUOUS
 10
-7.750572681427002
 20
1.0027449131011963
 11
-7.4339165687561035
 21
1.3194010257720947
  0
LINE
  8
0
 62
5
  6
CONTINUOUS
 10
-7.2846431732177734
 20
1.3194010257720947
 11
-7.6012992858886719
 21
1.0027449131011963
  0
LINE
  8
0
 62
5
  6
CONTINUOUS
 10
-7.494194507598877
 20
0.96057784557342529
 11
-7.1353716850280762
 21
1.3194010257720947
  0
LINE
  8
0
 62
5
  6
CONTINUOUS
 10
-6.9860982894897461
 20
1.3194010257720947
 11
-7.4083065986633301
 21
0.89719283580780029
  0
LINE
  8
0
 62
5
  6
CONTINUOUS
 10
-7.259033203125
 20
0.89719283580780029
 11
-6.8368234634399414
 21
1.3194010257720947
  0
LINE
  8
0
 62
5
  6
CONTINUOUS
 10
-6.6875505447387695
 20
1.3194010257720947
 11
-7.1097598075866699
 21
0.89719283580780029
  0
LINE
  8
0
 62
5
  6
CONTINUOUS
 10
-6.9604864120483398
 20
0.89719283580780029
 11
-6.5382771492004395
 21
1.3194010257720947
  0
LINE
  8
0
 62
5
  6
CONTINUOUS
 10
-6.3890070915222168
 20
1.3194010257720947
 11
-6.8112149238586426
 21
0.89719283580780029
  0
LINE
  8
0
 62
5
  6
CONTINUOUS
 10
-6.6619420051574707
 20
0.89719283580780029
 11
-6.2397336959838867
 21
1.3194010257720947
  0
LINE
  8
0
 62
5
  6
CONTINUOUS
 10
-6.0904603004455566
 20
1.3194010257720947
 11
-6.5126686096191406
 21
0.89719283580780029
  0
LINE
  8
0
 62
5
  6
CONTINUOUS
 10
-6.3633952140808105
 20
0.89719283580780029
 11
-5.9411873817443848
 21
1.3194010257720947
  0
LINE
  8
0
 62
5
  6
CONTINUOUS
 10
-5.7919139862060547
 20
1.3194010257720947
 11
-6.1085700988769531
 21
1.0027449131011963
  0
LINE
  8
0
 62
5
  6
CONTINUOUS
 10
-5.959296703338623
 20
1.0027449131011963
 11
-5.6426405906677246
 21
1.3194010257720947
  0
LINE
  8
0
 62
5
  6
CONTINUOUS
 10
-5.5414824485778809
 20
1.2712860107421875
 11
-5.810023307800293
 21
1.0027449131011963
  0
LINE
  8
0
 62
5
  6
CONTINUOUS
 10
-5.6607503890991211
 20
1.0027449131011963
 11
-5.5414824485778809
 21
1.122012734413147
  0
ENDBLK
  0
BLOCK
  8
0
 62
5
  6
CONTINUOUS
  2
TELL_9
 70
0
 10
-7.2640289577186739
 20
0.66503441963958876
  0
LINE
  8
0
 62
5
  6
CONTINUOUS
 10
-8.3913869857788086
 20
0.48779058456420898
 11
-8.1674766540527344
 21
0.26388064026832581
  0
LINE
  8
0
 62
5
  6
CONTINUOUS
 10
-7.9435672760009766
 20
0.26388064026832581
 11
-8.3751506805419922
 21
0.69546246528625488
  0
LINE
  8
0
 62
5
  6
CONTINUOUS
 10
-8.2331972122192383
 20
0.77741926908493042
 11
-7.7196569442749023
 21
0.26388064026832581
  0
LINE
  8
0
 62
5
  6
CONTINUOUS
 10
-7.5361456871032715
 20
0.30427923798561096
 11
-8.0235071182250977
 21
0.79164081811904907
  0
LINE
  8
0
 62
5
  6
CONTINUOUS
 10
-7.7995991706848145
 20
0.79164081811904907
 11
-7.3773908615112305
 21
0.36943268775939941
  0
LINE
  8
0
 62
5
  6
CONTINUOUS
 10
-7.1534810066223145
 20
0.36943268775939941
 11
-7.5756893157958984
 21
0.79164081811904907
  0
LINE
  8
0
 62
5
  6
CONTINUOUS
 10
-7.4573311805725098
 20
0.89719283580780029
 11
-6.9295711517333984
 21
0.36943268775939941
  0
LINE
  8
0
 62
5
  6
CONTINUOUS
 10
-6.7056632041931152
 20
0.36943268775939941
 11
-7.2334213256835937
 21
0.89719283580780029
  0
LINE
  8
0
 62
5
  6
CONTINUOUS
 10
-7.0095114707946777
 20
0.89719283580780029
 11
-6.4817514419555664
 21
0.36943268775939941
  0
LINE
  8
0
 62
5
  6
CONTINUOUS
 10
-6.1522912979125977
 20
0.26388064026832581
 11
-6.1830310821533203
 21
0.29462209343910217
  0
LINE
  8
0
 62
5
  6
CONTINUOUS
 10
-6.2578434944152832
 20
0.36943268775939941
 11
-6.7856030464172363
 21
0.89719283580780029
  0
LINE
  8
0
 62
5
  6
CONTINUOUS
 10
-6.5616922378540039
 20
0.89719283580780029
 11
-5.928380012512207
 21
0.26388064026832581
  0
LINE
  8
0
 62
5
  6
CONTINUOUS
 10
-5.7044715881347656
 20
0.26388064026832581
 11
-6.3377838134765625
 21
0.89719283580780029
  0
LINE
  8
0
 62
5
  6
CONTINUOUS
 10
-6.0083203315734863
 20
0.79164081811904907
 11
-5.4805598258972168
 21
0.26388064026832581
  0
LINE
  8
0
 62
5
  6
CONTINUOUS
 10
-5.3303780555725098
 20
0.33760729432106018
 11
-5.7844119071960449
 21
0.79164081811904907
  0
LINE
  8
0
 62
5
  6
CONTINUOUS
 10
-5.5605034828186035
 20
0.79164081811904907
 11
-5.3303780555725098
 21
0.56151723861694336
  0
ENDBLK
  0
BLOCK
  8
0
 62
5
  6
DASHDOT
  2
TELL_10
 70
0
 10
-6.86088241503061
 20
1.2982900569981002
  0
LINE
  8
0
 62
140
  6
CONTINUOUS
 10
-7.1775385264935645
 20
0.98163394553212302
 11
-7.1775385264935645
 21
-0.32578636267982369
  0
LINE
  8
0
 62
140
  6
CONTINUOUS
 10
-7.1775385264935645
 20
-0.32578636267982369
 11
-7.1127823516993915
 21
-0.39054253747399892
  0
LINE
  8
0
 62
140
  6
CONTINUOUS
 10
-7.1127823516993915
 20
-0.39054253747399892
 11
-6.6089824783618365
 21
-0.39054253747399892
  0
LINE
  8
0
 62
140
  6
CONTINUOUS
 10
-6.6089824783618365
 20
-0.39054253747399892
 11
-6.5442263035676644
 21
-0.32578636267982369
  0
LINE
  8
0
 62
140
  6
CONTINUOUS
 10
-6.5442263035676644
 20
-0.32578636267982369
 11
-6.5442263035676644
 21
0.98163394553212302
  0
LINE
  8
0
 62
140
  6
CONTINUOUS
 10
-7.1775385264935645
 20
-0.32578636267982369
 11
-6.5442263035676644
 21
-0.32578636267982369
  0
LINE
  8
0
 62
5
  6
CONTINUOUS
 10
-7.1127823516993915
 20
-0.39054253747399892
 11
-7.1127823516993915
 21
0.98163394553212302
  0
LINE
  8
0
 62
5
  6
CONTINUOUS
 10
-6.6089824783618365
 20
-0.39054253747399892
 11
-6.6089824783618365
 21
0.98163394553212302
  0
LINE
  8
0
 62
140
  6
CONTINUOUS
 10
-7.1775385264935645
 20
0.98163394553212302
 11
-7.4414186193793563
 21
1.2455140384179157
  0
LINE
  8
0
 62
140
  6
CONTINUOUS
 10
-7.4414186193793563
 20
1.2455140384179157
 11
-7.4414186193793563
 21
1.2982900569950742
  0
LINE
  8
0
 62
140
  6
CONTINUOUS
 10
-6.2803462106818717
 20
1.2982900569950742
 11
-6.2803462106818717
 21
1.2455140384179157
  0
LINE
  8
0
 62
140
  6
CONTINUOUS
 10
-6.2803462106818717
 20
1.2455140384179157
 11
-6.5442263035676644
 21
0.98163394553212302
  0
LINE
  8
0
 62
140
  6
CONTINUOUS
 10
-6.5442263035676644
 20
0.98163394553212302
 11
-7.1775385264935645
 21
0.98163394553212302
  0
LINE
  8
0
 62
140
  6
CONTINUOUS
 10
-6.9453240447540674
 20
1.2982900569950742
 11
-6.9453240447540674
 21
1.1716276124098919
  0
LINE
  8
0
 62
140
  6
CONTINUOUS
 10
-6.9453240447540674
 20
1.1716276124098919
 11
-6.7764407853071607
 21
1.1716276124098919
  0
LINE
  8
0
 62
140
  6
CONTINUOUS
 10
-6.7764407853071607
 20
1.1716276124098919
 11
-6.7764407853071607
 21
1.2982900569950742
  0
LINE
  8
0
 62
140
  6
CONTINUOUS
 10
-7.4414186193793563
 20
1.2455140384179157
 11
-6.9453240447540674
 21
1.2455140384179157
  0
LINE
  8
0
 62
140
  6
CONTINUOUS
 10
-6.7764407853071607
 20
1.2455140384179157
 11
-6.2803462106818717
 21
1.2455140384179157
  0
LINE
  8
0
 62
140
  6
CONTINUOUS
 10
-7.4414186193793563
 20
1.2982900569950742
 11
-6.9453240447540674
 21
1.2982900569950742
  0
LINE
  8
0
 62
140
  6
CONTINUOUS
 10
-6.7764407853071607
 20
1.2982900569950742
 11
-6.2803462106818717
 21
1.2982900569950742
  0
LINE
  8
0
 62
5
  6
DASHDOT
 10
-6.8608824150306127
 20
-0.5488705932054746
 11
-6.8608824150306127
 21
1.4566181127265498
  0
ENDBLK
  0
BLOCK
  8
0
 62
50
  6
CONTINUOUS
  2
TELL_5
 70
0
 10
-6.86088241503061
 20
1.1999877319189361e-014
  0
LINE
  8
0
 62
50
  6
CONTINUOUS
 10
-9.0774751952712691
 20
-4.5387375976356221
 11
-9.0774751952712691
 21
4.5387375976356461
  0
LINE
  8
0
 62
50
  6
CONTINUOUS
 10
-4.6442896347899509
 20
4.5387375976356461
 11
-4.6442896347899509
 21
-4.5387375976356221
  0
LINE
  8
0
 62
50
  6
CONTINUOUS
 10
-9.0774751952712691
 20
-4.5387375976356221
 11
-4.6442896347899509
 21
-4.5387375976356221
  0
LINE
  8
0
 62
50
  6
CONTINUOUS
 10
-9.0774751952712691
 20
4.5387375976356461
 11
-4.6442896347899509
 21
4.5387375976356461
  0
CIRCLE
  8
0
 62
50
  6
CONTINUOUS
 10
-6.8608824150306278
 20
-3.1665611146295003
 40
0.55414819506014668
  0
LINE
  8
0
 62
5
  6
DASHDOT
 10
-7.5258602491028022
 20
-3.1665611146295003
 11
-6.1959045809584534
 21
-3.1665611146295003
  0
LINE
  8
0
 62
5
  6
DASHDOT
 10
-6.8608824150306278
 20
-3.8315389487016764
 11
-6.8608824150306278
 21
-2.5015832805573242
  0
ARC
  8
0
 62
5
  6
CONTINUOUS
 10
-6.8608824150502592
 20
3.1665611145843431
 40
0.55414819506016466
 50
208.43689014899999
 51
331.56310985099998
  0
ARC
  8
0
 62
50
  6
CONTINUOUS
 10
-6.8608824150306278
 20
3.1665611146295243
 40
0.55414819506014668
 50
331.56310985086856
 51
208.43689014927719
  0
LINE
  8
0
 62
5
  6
DASHDOT
 10
-7.5258602491028022
 20
3.1665611146295243
 11
-6.1959045809584534
 21
3.1665611146295243
  0
LINE
  8
0
 62
5
  6
DASHDOT
 10
-6.8608824150306278
 20
2.5015832805573481
 11
-6.8608824150306278
 21
3.8315389487017004
  0
INSERT
  8
0
 62
50
  6
CONTINUOUS
  2
TELL_6
 10
-6.86088241503061
 20
-1.0027443529660123
 41
1.0
 42
1.0
 50
0.0
  0
LINE
  8
0
 62
50
  6
CONTINUOUS
 10
-8.1802828794646221
 20
1.0027443529660243
 11
-8.1802828794646221
 21
1.3194004644289754
  0
LINE
  8
0
 62
50
  6
CONTINUOUS
 10
-8.1802828794646221
 20
1.3194004644289754
 11
-5.5414819506066921
 21
1.3194004644289754
  0
LINE
  8
0
 62
50
  6
CONTINUOUS
 10
-5.5414819506066921
 20
1.3194004644289754
 11
-5.5414819506066921
 21
1.0027443529660243
  0
LINE
  8
0
 62
50
  6
CONTINUOUS
 10
-8.1802828794646221
 20
1.3194004644289754
 11
-8.1802828794646221
 21
2.9026810217437315
  0
LINE
  8
0
 62
50
  6
CONTINUOUS
 10
-8.1802828794646221
 20
2.9026810217437315
 11
-5.5414819506066921
 21
2.9026810217437315
  0
LINE
  8
0
 62
50
  6
CONTINUOUS
 10
-5.5414819506066921
 20
2.9026810217437315
 11
-5.5414819506066921
 21
1.3194004644289754
  0
INSERT
  8
0
 62
50
  6
CONTINUOUS
  2
TELL_7
 10
-6.8608824150411651
 20
1.0027443529691786
 41
1.0
 42
1.0
 50
0.0
  0
LINE
  8
0
 62
50
  6
CONTINUOUS
 10
-5.5414819506066921
 20
1.0027443529660243
 11
-6.227570192109753
 21
1.0027443529660243
  0
LINE
  8
0
 62
50
  6
CONTINUOUS
 10
-6.227570192109753
 20
1.0027443529660243
 11
-6.227570192109753
 21
0.89719231581170711
  0
LINE
  8
0
 62
50
  6
CONTINUOUS
 10
-6.227570192109753
 20
0.89719231581170711
 11
-7.4941946379615612
 21
0.89719231581170711
  0
LINE
  8
0
 62
50
  6
CONTINUOUS
 10
-7.4941946379615612
 20
0.89719231581170711
 11
-7.4941946379615612
 21
1.0027443529660243
  0
LINE
  8
0
 62
50
  6
CONTINUOUS
 10
-7.4941946379615612
 20
1.0027443529660243
 11
-8.1802828794646221
 21
1.0027443529660243
  0
INSERT
  8
0
 62
5
  6
CONTINUOUS
  2
TELL_8
 10
-5.7875746216310366
 20
1.2040574312271375
 41
1.0
 42
1.0
 50
0.0
  0
INSERT
  8
0
 62
5
  6
CONTINUOUS
  2
TELL_9
 10
-7.2640289577186739
 20
0.66503441963958876
 41
1.0
 42
1.0
 50
0.0
  0
INSERT
  8
0
 62
5
  6
DASHDOT
  2
TELL_10
 10
-6.86088241503061
 20
1.2982900569981002
 41
1.0
 42
1.0
 50
0.0
  0
LINE
  8
0
 62
5
  6
CONTINUOUS
 10
-8.6552670466540178
 20
-4.5387375976356221
 11
-8.6552670466525399
 21
-0.68608824150600844
  0
LINE
  8
0
 62
5
  6
CONTINUOUS
 10
-8.6552670466525399
 20
0.68608824150011349
 11
-8.6552670466540178
 21
4.5387375976356461
  0
LINE
  8
0
 62
5
  6
CONTINUOUS
 10
-5.06649778340722
 20
-4.5387375976356221
 11
-5.0664977834057376
 21
-0.68608824150600844
  0
LINE
  8
0
 62
5
  6
CONTINUOUS
 10
-5.0664977834057376
 20
0.68608824150011349
 11
-5.06649778340722
 21
4.5387375976356461
  0
ENDBLK
  0
BLOCK
  8
0
 62
140
  6
CONTINUOUS
  2
TELL_11
 70
0
 10
0.42220814861713629
 20
5.9999386595744155e-015
  0
LINE
  8
0
 62
50
  6
CONTINUOUS
 10
0.31665611146295125
 20
1.2465063412215922
 11
0.73886426008021955
 21
1.0027443529660123
  0
LINE
  8
0
 62
50
  6
CONTINUOUS
 10
0.73886426008021955
 20
1.0027443529660123
 11
0.73886426008021955
 21
0.9793819969721439
  0
LINE
  8
0
 62
50
  6
CONTINUOUS
 10
0.73886426008021955
 20
0.97938199552027871
 11
0.73729322709841105
 21
0.97864034172829484
  0
LINE
  8
0
 62
50
  6
CONTINUOUS
 10
0.73729322607461745
 20
0.97864034172829484
 11
0.73886426008021955
 21
0.97534035616267023
  0
LINE
  8
0
 62
50
  6
CONTINUOUS
 10
0.73886426008021955
 20
0.97534035093276372
 11
0.73886426008021955
 21
0.91342939653087774
  0
LINE
  8
0
 62
50
  6
CONTINUOUS
 10
0.73886426008021955
 20
0.91342939438594772
 11
0.73676921554758967
 21
0.90999792522267886
  0
LINE
  8
0
 62
50
  6
CONTINUOUS
 10
0.73676921551324004
 20
0.90999792522269085
 11
0.73886426008021955
 21
0.90486236913455764
  0
LINE
  8
0
 62
50
  6
CONTINUOUS
 10
0.73886426008021955
 20
0.90486236546662713
 11
0.73886426008021955
 21
0.81220607153682589
  0
LINE
  8
0
 62
50
  6
CONTINUOUS
 10
0.73886426008021955
 20
0.81220606768071335
 11
0.7372932261740065
 21
0.80726728911709134
  0
LINE
  8
0
 62
50
  6
CONTINUOUS
 10
0.737293226125179
 20
0.80726728911709134
 11
0.73886426008021955
 21
0.8035387419057185
  0
LINE
  8
0
 62
50
  6
CONTINUOUS
 10
0.73886426008021955
 20
0.80353873860241631
 11
0.73886426008021955
 21
-0.80353873860241631
  0
LINE
  8
0
 62
50
  6
CONTINUOUS
 10
0.73886426008021955
 20
-0.80353874190575458
 11
0.73729322612519699
 21
-0.80726728911707935
  0
LINE
  8
0
 62
50
  6
CONTINUOUS
 10
0.7372932261740065
 20
-0.80726728911707935
 11
0.73886426008021955
 21
-0.81220606768070136
  0
LINE
  8
0
 62
50
  6
CONTINUOUS
 10
0.73886426008021955
 20
-0.81220607153680191
 11
0.73886426008021955
 21
-0.90486236546662713
  0
LINE
  8
0
 62
50
  6
CONTINUOUS
 10
0.73886426008021955
 20
-0.90486236913458162
 11
0.73676921551325203
 21
-0.90999792522266687
  0
LINE
  8
0
 62
50
  6
CONTINUOUS
 10
0.73676921554759567
 20
-0.90999792522266687
 11
0.73886426008021955
 21
-0.91342939438592374
  0
LINE
  8
0
 62
50
  6
CONTINUOUS
 10
0.73886426008021955
 20
-0.91342939653084176
 11
0.73886426008021955
 21
-0.9753403509327877
  0
LINE
  8
0
 62
50
  6
CONTINUOUS
 10
0.73886426008021955
 20
-0.97534035616269421
 11
0.73729322607464143
 21
-0.97864034172829484
  0
LINE
  8
0
 62
50
  6
CONTINUOUS
 10
0.73729322709844103
 20
-0.97864034172829484
 11
0.73886426008021955
 21
-0.97938199552025473
  0
LINE
  8
0
 62
50
  6
CONTINUOUS
 10
0.73886426008021955
 20
-0.97938199697211992
 11
0.73886426008021955
 21
-1.0027443529660123
  0
LINE
  8
0
 62
50
  6
CONTINUOUS
 10
0.73886426008021955
 20
-1.0027443529660123
 11
0.31665611146295125
 21
-1.2465063412215802
  0
LINE
  8
0
 62
50
  6
CONTINUOUS
 10
0.31665611146295125
 20
-1.2465063412215802
 11
0.31665611146441519
 21
-1.1459040564471143
  0
ARC
  8
0
 62
50
  6
CONTINUOUS
 10
-0.18668586813186946
 20
-1.1914094906772357
 40
0.50539478921721737
 50
5.1658726824270671
 51
36.619929455811793
  0
ARC
  8
0
 62
50
  6
CONTINUOUS
 10
0.93292853848867074
 20
-0.3593060574540663
 40
0.88957207171327424
 50
201.55213090042986
 51
216.61992945581144
  0
LINE
  8
0
 62
50
  6
CONTINUOUS
 10
0.10555203715431707
 20
-0.68608824150306102
 11
0.10555203715431707
 21
0.68608824150306102
  0
ARC
  8
0
 62
50
  6
CONTINUOUS
 10
0.93292853848867074
 20
0.35930605745409028
 40
0.88957207171327424
 50
143.38007054418887
 51
158.44786909992473
  0
ARC
  8
0
 62
50
  6
CONTINUOUS
 10
-0.18668586813186946
 20
1.1914094906772448
 40
0.50539478921721737
 50
323.38007054418904
 51
354.83412731809813
  0
LINE
  8
0
 62
50
  6
CONTINUOUS
 10
0.31665611146441519
 20
1.1459040564517746
 11
0.31665611146295125
 21
1.2465063412215893
  0
ENDBLK
  0
BLOCK
  8
0
 62
50
  6
CONTINUOUS
  2
3_111
 70
0
 10
-1.9649799110090775e-011
 20
-2.9474698665188938e-012
  0
INSERT
  8
0
 62
140
  6
CONTINUOUS
  2
TELL_11
 10
0.42220814861713629
 20
5.9999386595744155e-015
 41
1.0
 42
1.0
 50
0.0
  0
LINE
  8
0
 62
50
  6
CONTINUOUS
 10
0.31665611146295125
 20
1.2465063412215922
 11
0.73886426008021955
 21
1.0027443529660123
  0
LINE
  8
0
 62
50
  6
CONTINUOUS
 10
0.73886426008021955
 20
0.9793819969721439
 11
0.73886426008021955
 21
1.0027443529660123
  0
LINE
  8
0
 62
50
  6
CONTINUOUS
 10
0.73886426008021955
 20
-1.0027443529660123
 11
0.31665611146295125
 21
-1.2465063412215802
  0
LINE
  8
0
 62
50
  6
CONTINUOUS
 10
0.73886426008021955
 20
-0.97938199552025473
 11
0.73729322709844103
 21
-0.97864034172829484
  0
LINE
  8
0
 62
50
  6
CONTINUOUS
 10
0.73729322709841105
 20
0.97864034172829484
 11
0.73886426008021955
 21
0.97938199552027871
  0
LINE
  8
0
 62
50
  6
CONTINUOUS
 10
0.73886426008021955
 20
-0.91342939438592374
 11
0.73676921554759567
 21
-0.90999792522266687
  0
LINE
  8
0
 62
50
  6
CONTINUOUS
 10
0.73729322607464143
 20
-0.97864034172829484
 11
0.73886426008021955
 21
-0.97534035616269421
  0
LINE
  8
0
 62
50
  6
CONTINUOUS
 10
0.73886426008021955
 20
0.97534035616267023
 11
0.73729322607461745
 21
0.97864034172829484
  0
LINE
  8
0
 62
50
  6
CONTINUOUS
 10
0.73676921554758967
 20
0.90999792522267886
 11
0.73886426008021955
 21
0.91342939438594772
  0
LINE
  8
0
 62
50
  6
CONTINUOUS
 10
0.73886426008021955
 20
0.91342939653087774
 11
0.73886426008021955
 21
0.97534035093276372
  0
LINE
  8
0
 62
50
  6
CONTINUOUS
 10
0.73886426008021955
 20
-1.0027443529660123
 11
0.73886426008021955
 21
-0.97938199697211992
  0
LINE
  8
0
 62
50
  6
CONTINUOUS
 10
0.73886426008021955
 20
-0.81220606768070136
 11
0.7372932261740065
 21
-0.80726728911707935
  0
LINE
  8
0
 62
50
  6
CONTINUOUS
 10
0.73676921551325203
 20
-0.90999792522266687
 11
0.73886426008021955
 21
-0.90486236913458162
  0
LINE
  8
0
 62
50
  6
CONTINUOUS
 10
0.73886426008021955
 20
0.90486236913455764
 11
0.73676921551324004
 21
0.90999792522269085
  0
LINE
  8
0
 62
50
  6
CONTINUOUS
 10
0.7372932261740065
 20
0.80726728911709134
 11
0.73886426008021955
 21
0.81220606768071335
  0
LINE
  8
0
 62
50
  6
CONTINUOUS
 10
0.73729322612519699
 20
-0.80726728911707935
 11
0.73886426008021955
 21
-0.80353874190575458
  0
LINE
  8
0
 62
50
  6
CONTINUOUS
 10
0.73886426008021955
 20
0.8035387419057185
 11
0.737293226125179
 21
0.80726728911709134
  0
LINE
  8
0
 62
50
  6
CONTINUOUS
 10
0.73886426008021955
 20
-0.9753403509327877
 11
0.73886426008021955
 21
-0.91342939653084176
  0
LINE
  8
0
 62
50
  6
CONTINUOUS
 10
0.73886426008021955
 20
0.81220607153682589
 11
0.73886426008021955
 21
0.90486236546662713
  0
LINE
  8
0
 62
50
  6
CONTINUOUS
 10
0.73886426008021955
 20
-0.90486236546662713
 11
0.73886426008021955
 21
-0.81220607153680191
  0
LINE
  8
0
 62
50
  6
CONTINUOUS
 10
0.73886426008021955
 20
-0.80353873860241631
 11
0.73886426008021955
 21
0.80353873860241631
  0
LINE
  8
0
 62
50
  6
CONTINUOUS
 10
0.10555203715431707
 20
-0.68608824150306102
 11
0.10555203715431707
 21
0.68608824150306102
  0
LINE
  8
0
 62
50
  6
CONTINUOUS
 10
-1.4777285201604391
 20
-3.8074516328609262
 11
-1.4777285201604391
 21
3.8074516328609502
  0
LINE
  8
0
 62
50
  6
CONTINUOUS
 10
-1.4777285201604391
 20
3.8074516328609502
 11
-0.21110407430863415
 21
4.5387375976356461
  0
LINE
  8
0
 62
50
  6
CONTINUOUS
 10
-0.21110407430863415
 20
4.5387375976356461
 11
0.31665611146295125
 21
4.5387375976356461
  0
LINE
  8
0
 62
5
  6
CONTINUOUS
 10
-0.10555203717396687
 20
4.4331855604361481
 11
-0.10555203717396687
 21
-4.4331855604842643
  0
LINE
  8
0
 62
50
  6
CONTINUOUS
 10
-0.21110407430863415
 20
-4.5387375976356221
 11
0.31665611146295125
 21
-4.5387375976356221
  0
LINE
  8
0
 62
50
  6
CONTINUOUS
 10
-0.21110407430863415
 20
-4.5387375976356221
 11
-1.4777285201604391
 21
-3.8074516328609262
  0
LINE
  8
0
 62
50
  6
CONTINUOUS
 10
0.31665611146295125
 20
4.5387375976356461
 11
0.31665611146295125
 21
1.2465063412215893
  0
LINE
  8
0
 62
50
  6
CONTINUOUS
 10
0.31665611146295125
 20
1.2465063412215893
 11
0.31665611146441519
 21
1.1459040564517746
  0
ARC
  8
0
 62
50
  6
CONTINUOUS
 10
-0.18668586813186946
 20
1.1914094906772448
 40
0.50539478921721737
 50
323.38007054418904
 51
354.83412731809813
  0
ARC
  8
0
 62
50
  6
CONTINUOUS
 10
0.93292853848867074
 20
0.35930605745409028
 40
0.88957207171327424
 50
143.38007054418887
 51
158.44786909992473
  0
LINE
  8
0
 62
50
  6
CONTINUOUS
 10
0.31665611146295125
 20
-4.5387375976356221
 11
0.31665611146295125
 21
-1.2465063412215802
  0
LINE
  8
0
 62
50
  6
CONTINUOUS
 10
0.31665611146295125
 20
-1.2465063412215802
 11
0.31665611146441519
 21
-1.1459040564471143
  0
ARC
  8
0
 62
50
  6
CONTINUOUS
 10
-0.18668586813186946
 20
-1.1914094906772357
 40
0.50539478921721737
 50
5.1658726824270671
 51
36.619929455811793
  0
ARC
  8
0
 62
50
  6
CONTINUOUS
 10
0.93292853848867074
 20
-0.3593060574540663
 40
0.88957207171327424
 50
201.55213090042986
 51
216.61992945581144
  0
LINE
  8
0
 62
50
  6
CONTINUOUS
 10
1.372176483011174
 20
2.9026810217437196
 11
1.6888325944741251
 21
2.9026810217437196
  0
LINE
  8
0
 62
50
  6
CONTINUOUS
 10
1.6888325944741251
 20
2.9026810217437196
 11
1.6888325944741251
 21
1.3194004644289634
  0
LINE
  8
0
 62
50
  6
CONTINUOUS
 10
1.6888325944741251
 20
1.3194004644289634
 11
5.0664977834122711
 21
1.3194004644289634
  0
LINE
  8
0
 62
50
  6
CONTINUOUS
 10
5.0664977834122711
 20
1.3194004644289634
 11
5.0664977834122711
 21
1.0027443529660123
  0
LINE
  8
0
 62
50
  6
CONTINUOUS
 10
1.372176483011174
 20
1.0027443529660123
 11
1.372176483011174
 21
2.9026810217437196
  0
LINE
  8
0
 62
50
  6
CONTINUOUS
 10
9.394131306739272
 20
2.9026810217437076
 11
9.394131306739272
 21
1.0027443529660003
  0
LINE
  8
0
 62
50
  6
CONTINUOUS
 10
5.6998100063381738
 20
1.0027443529660123
 11
5.6998100063381738
 21
1.3194004644289634
  0
LINE
  8
0
 62
50
  6
CONTINUOUS
 10
5.6998100063381738
 20
1.3194004644289634
 11
9.0774751952763211
 21
1.3194004644289514
  0
LINE
  8
0
 62
50
  6
CONTINUOUS
 10
9.0774751952763211
 20
1.3194004644289514
 11
9.0774751952763211
 21
2.9026810217437076
  0
LINE
  8
0
 62
50
  6
CONTINUOUS
 10
9.0774751952763211
 20
2.9026810217437076
 11
9.394131306739272
 21
2.9026810217437076
  0
LINE
  8
0
 62
50
  6
CONTINUOUS
 10
0.73886426008527151
 20
-1.0027443529660123
 11
10.85602702132152
 21
-1.0027443529629747
  0
LINE
  8
0
 62
50
  6
CONTINUOUS
 10
10.961579058475836
 20
-0.89719231580865766
 11
10.961579058475836
 21
0.89719231581473258
  0
LINE
  8
0
 62
50
  6
CONTINUOUS
 10
10.449651678282443
 20
-1.0027443529660243
 11
10.449651678282443
 21
1.0027443529660003
  0
LINE
  8
0
 62
50
  6
CONTINUOUS
 10
0.73886426008527151
 20
1.0027443529660123
 11
10.85602702132152
 21
1.0027443529690496
  0
LINE
  8
0
 62
5
  6
CONTINUOUS
 10
0.84441629723454259
 20
-0.68608824150002357
 11
10.3440996411653
 21
-0.68608824150002357
  0
LINE
  8
0
 62
5
  6
CONTINUOUS
 10
0.84441629723454259
 20
0.68608824150609848
 11
10.3440996411653
 21
0.68608824150609848
  0
ARC
  8
0
 62
50
  6
CONTINUOUS
 10
10.856027021326565
 20
-0.89719231581169512
 40
0.10555203715431707
 50
270
 51
1.648799546949532e-009
  0
ARC
  8
0
 62
50
  6
CONTINUOUS
 10
10.85602702132152
 20
0.89719231581169512
 40
0.10555203715431707
 50
1.648799546870687e-009
 51
90
  0
LINE
  8
0
 62
5
  6
CONTINUOUS
 10
10.85602702132152
 20
-0.89719231581169512
 11
10.85602702132152
 21
0.89719231581473258
  0
LINE
  8
0
 62
5
  6
DASHDOT
 10
3.7998733375604665
 20
0.84441629723453659
 11
3.7998733375604665
 21
1.4777285201604391
  0
LINE
  8
0
 62
5
  6
DASHDOT
 10
6.9664344521899793
 20
0.84441629723453659
 11
6.9664344521899793
 21
1.4777285201604391
  0
LINE
  8
0
 62
5
  6
DASHDOT
 10
-0.42220814863691808
 20
-3.1665611146295003
 11
0.6333122229259085
 21
-3.1665611146295003
  0
LINE
  8
0
 62
5
  6
DASHDOT
 10
-0.42220814863691808
 20
3.1665611146295243
 11
0.6333122229259085
 21
3.1665611146295243
  0
ENDBLK
  0
ENDSEC
  0
SECTION
  2
ENTITIES
  0
INSERT
  8
0
 62
50
  6
CONTINUOUS
  2
TELL_1
 10
-6.86088241503061
 20
-9.1830272324255731
 41
1.0
 42
1.0
 50
0.0
  0
INSERT
  8
0
 62
50
  6
CONTINUOUS
  2
TELL_5
 10
-6.86088241503061
 20
1.1999877319189361e-014
 41
1.0
 42
1.0
 50
0.0
  0
INSERT
  8
0
 62
50
  6
CONTINUOUS
  2
3_111
 10
-1.9649799110090775e-011
 20
-2.9474698665188938e-012
 41
1.0
 42
1.0
 50
0.0
  0
ENDSEC
  0
EOF
