  0
SECTION
  2
HEADER
  9
$ACADVER
  1
AC1009
  9
$EXTMIN
 10
-12.373737373737892
 20
-15.448232323231682
  9
$EXTMAX
 10
12.626262626262104
 20
4.3118686868685252
  9
$TEXTSTYLE
  7
STANDARD
  9
$DIMLFAC
 40
1
  9
$REGENMODE
 70
1
  9
$DRAGMODE
 70
2
  9
$DIMASO
 70
1
  9
$LTSCALE
 40
1.0000000000
  0
ENDSEC
  0
SECTION
  2
TABLES
  0
TABLE
  2
LTYPE
 70
3
  0
LTYPE
  2
CONTINUOUS
 70
64
  3
CONTINUOUS
 72
65
 73
0
 40
0.0000000000
  0
LTYPE
  2
HIDDEN
 70
64
  3
HIDDEN
 72
65
 73
2
 40
0.5000000000
 49
0.2500000000
 49
-0.2500000000
  0
LTYPE
  2
DASHDOT
 70
64
  3
DASHDOT
 72
65
 73
4
 40
1.0000000000
 49
0.5000000000
 49
-0.2500000000
 49
0.0000000000
 49
-0.2500000000
  0
ENDTAB
  0
TABLE
  2
LAYER
 70
2
  0
LAYER
  2
0
 70
0
 62
2
  6
CONTINUOUS
  0
LAYER
  2
249
 70
0
 62
2
  6
CONTINUOUS
  0
ENDTAB
  0
TABLE
  2
STYLE
 70
0
  0
STYLE
  2
Standard
 70
0
 40
0
 41
1
 50
0
 71
0
 42
2.5
  3
txt
  4

  0
ENDTAB
  0
ENDSEC
  0
SECTION
  2
BLOCKS
  0
BLOCK
  8
249
 62
50
  6
DASHDOT
  2
TELL_2
 70
0
 10
-7.1969696969704176
 20
-0.42297979797607627
  0
LINE
  8
249
 62
140
  6
CONTINUOUS
 10
-7.1969696969693731
 20
0.30599781463338399
 11
-7.8282828282824797
 21
-0.058490991673182599
  0
LINE
  8
249
 62
140
  6
CONTINUOUS
 10
-7.8282828282824797
 20
-0.058490991673182599
 11
-7.8282828282824797
 21
-0.78746860428631582
  0
LINE
  8
249
 62
140
  6
CONTINUOUS
 10
-7.8282828282824797
 20
-0.78746860428631582
 11
-7.1969696969693731
 21
-1.1519574105928825
  0
LINE
  8
249
 62
140
  6
CONTINUOUS
 10
-7.1969696969693731
 20
-1.1519574105928825
 11
-6.5656565656562682
 21
-0.78746860428631582
  0
LINE
  8
249
 62
140
  6
CONTINUOUS
 10
-6.5656565656562682
 20
-0.78746860428631582
 11
-6.5656565656562682
 21
-0.058490991673182599
  0
LINE
  8
249
 62
140
  6
CONTINUOUS
 10
-6.5656565656562682
 20
-0.058490991673182599
 11
-7.1969696969693731
 21
0.30599781463338399
  0
CIRCLE
  8
249
 62
140
  6
CONTINUOUS
 10
-7.1969696969693731
 20
-0.42297979797974922
 40
0.63131313131310529
  0
ENDBLK
  0
BLOCK
  8
0
 62
140
  6
CONTINUOUS
  2
TELL_4
 70
0
 10
-11.553030303030338
 20
-0.11363636363821068
  0
LINE
  8
0
 62
50
  6
CONTINUOUS
 10
-12.37373737373686
 20
-0.93434343434339562
 11
-12.37373737373686
 21
0.83333333332959347
  0
LINE
  8
0
 62
50
  6
CONTINUOUS
 10
-12.37373737373686
 20
0.83333333332959347
 11
-12.18434343434396
 21
0.83333333333329873
  0
ARC
  8
0
 62
50
  6
CONTINUOUS
 10
-12.18434343434293
 20
0.4545454545417304
 40
0.37878787878786307
 50
5.6045614227115074e-010
 51
90
  0
LINE
  8
0
 62
50
  6
CONTINUOUS
 10
-11.805555555555065
 20
0.45454545454543566
 11
-11.805555555555065
 21
-3.7045563025723128e-012
  0
ARC
  8
0
 62
50
  6
CONTINUOUS
 10
-11.553030303029823
 20
-3.7063506024100911e-012
 40
0.25252525252524133
 50
179.99999999999969
 51
5.0888874903416268e-013
  0
LINE
  8
0
 62
50
  6
CONTINUOUS
 10
-11.300505050505613
 20
-3.7045563025723128e-012
 11
-11.300505050505613
 21
0.45454545454543566
  0
ARC
  8
0
 62
50
  6
CONTINUOUS
 10
-10.921717171716718
 20
0.45454545454173223
 40
0.37878787878786307
 50
90
 51
179.99999999943981
  0
LINE
  8
0
 62
50
  6
CONTINUOUS
 10
-10.92171717171775
 20
0.83333333333329873
 11
-10.732323232322786
 21
0.83333333332959525
  0
LINE
  8
0
 62
50
  6
CONTINUOUS
 10
-10.732323232323818
 20
0.83333333332959525
 11
-10.732323232323818
 21
-0.93434343434339562
  0
ARC
  8
0
 62
50
  6
CONTINUOUS
 10
-10.858585858585407
 20
-0.9343434343470991
 40
0.12626262626262102
 50
270
 51
1.6805542048241602e-009
  0
LINE
  8
0
 62
50
  6
CONTINUOUS
 10
-10.858585858586439
 20
-1.0606060606060166
 11
-12.247474747475271
 21
-1.0606060606097201
  0
ARC
  8
0
 62
50
  6
CONTINUOUS
 10
-12.247474747474239
 20
-0.9343434343470991
 40
0.12626262626262102
 50
179.99999999831945
 51
270
  0
ENDBLK
  0
BLOCK
  8
0
 62
5
  6
CONTINUOUS
  2
TELL_3
 70
0
 10
-11.553030303029823
 20
-1.0606060606060166
  0
INSERT
  8
0
 62
140
  6
CONTINUOUS
  2
TELL_4
 10
-11.553030303030338
 20
-0.11363636363821068
 41
1.0
 42
1.0
 50
0.0
  0
LINE
  8
0
 62
50
  6
CONTINUOUS
 10
-12.373737373737892
 20
-0.93434343434339562
 11
-12.37373737373686
 21
0.83333333332959347
  0
LINE
  8
0
 62
50
  6
CONTINUOUS
 10
-12.37373737373686
 20
0.83333333332959347
 11
-12.18434343434396
 21
0.83333333333329873
  0
LINE
  8
0
 62
50
  6
CONTINUOUS
 10
-11.805555555556097
 20
0.45454545454543566
 11
-11.805555555555065
 21
-3.7045563025723128e-012
  0
LINE
  8
0
 62
50
  6
CONTINUOUS
 10
-11.300505050504581
 20
-3.7045563025723128e-012
 11
-11.300505050505613
 21
0.45454545454543566
  0
LINE
  8
0
 62
50
  6
CONTINUOUS
 10
-10.92171717171775
 20
0.83333333333329873
 11
-10.732323232322786
 21
0.83333333332959525
  0
LINE
  8
0
 62
50
  6
CONTINUOUS
 10
-10.732323232322786
 20
0.83333333332959525
 11
-10.732323232323818
 21
-0.93434343434339562
  0
LINE
  8
0
 62
50
  6
CONTINUOUS
 10
-10.858585858586439
 20
-1.0606060606060166
 11
-12.247474747475271
 21
-1.0606060606097201
  0
ARC
  8
0
 62
50
  6
CONTINUOUS
 10
-11.553030303029823
 20
-3.7063506024100911e-012
 40
0.25252525252524133
 50
179.99999999999969
 51
5.0888874903416268e-013
  0
ARC
  8
0
 62
50
  6
CONTINUOUS
 10
-12.18434343434293
 20
0.4545454545417304
 40
0.37878787878786307
 50
5.6045614227115074e-010
 51
90
  0
ARC
  8
0
 62
50
  6
CONTINUOUS
 10
-10.921717171716718
 20
0.45454545454173223
 40
0.37878787878786307
 50
90
 51
179.99999999943981
  0
ARC
  8
0
 62
50
  6
CONTINUOUS
 10
-12.247474747474239
 20
-0.9343434343470991
 40
0.12626262626262102
 50
179.99999999831945
 51
270
  0
ARC
  8
0
 62
50
  6
CONTINUOUS
 10
-10.858585858585407
 20
-0.9343434343470991
 40
0.12626262626262102
 50
270
 51
1.6805542048241602e-009
  0
LINE
  8
0
 62
5
  6
DASHDOT
 10
-11.856060606060113
 20
-3.7063506024100911e-012
 11
-11.249999999999535
 21
-3.7063506024100911e-012
  0
LINE
  8
0
 62
5
  6
DASHDOT
 10
-11.553030303029823
 20
-0.30303030303399575
 11
-11.553030303029823
 21
0.30303030302658301
  0
ENDBLK
  0
BLOCK
  8
0
 62
5
  6
DASHDOT
  2
TELL_1
 70
0
 10
-5.2398989898987729
 20
0
  0
LINE
  8
0
 62
50
  6
CONTINUOUS
 10
-5.2398989898987596
 20
-5.1578282828280555
 11
-5.2398989898987596
 21
4.3118686868685216
  0
LINE
  8
0
 62
50
  6
CONTINUOUS
 10
-5.7449494949492443
 20
0.83964646464644133
 11
-5.7449494949492443
 21
4.3118686868685216
  0
LINE
  8
0
 62
50
  6
CONTINUOUS
 10
-5.7449494949492443
 20
-5.1578282828280555
 11
-5.7449494949492443
 21
-1.6856060606059793
  0
LINE
  8
0
 62
50
  6
CONTINUOUS
 10
-5.8207070707068143
 20
-1.6856060606059793
 11
-5.2398989898987596
 21
-1.6856060606059793
  0
LINE
  8
0
 62
50
  6
CONTINUOUS
 10
-5.8207070707068178
 20
0.83964646464644133
 11
-5.2398989898987596
 21
0.83964646464644133
  0
LINE
  8
0
 62
50
  6
CONTINUOUS
 10
-5.8207070707068143
 20
-2.0643939393938422
 11
-5.8207070707068143
 21
1.2184343434343043
  0
LINE
  8
0
 62
50
  6
CONTINUOUS
 10
-5.7449494949492443
 20
4.3118686868685216
 11
-5.2398989898987596
 21
4.3118686868685216
  0
LINE
  8
0
 62
50
  6
CONTINUOUS
 10
-5.2398989898987596
 20
-5.1578282828280555
 11
-5.7449494949492443
 21
-5.1578282828280555
  0
LINE
  8
0
 62
50
  6
CONTINUOUS
 10
-5.2398989898987596
 20
1.3446969696969253
 11
-5.7449494949492443
 21
1.3446969696969253
  0
LINE
  8
0
 62
50
  6
CONTINUOUS
 10
-5.7449494949492443
 20
-2.1906565656564632
 11
-5.2398989898987596
 21
-2.1906565656564632
  0
LINE
  8
0
 62
50
  6
CONTINUOUS
 10
-5.7449494949492443
 20
3.7286865967780209
 11
-5.2398989898987596
 21
3.7286865967780209
  0
LINE
  8
0
 62
50
  6
CONTINUOUS
 10
-5.2398989898987596
 20
1.6603535353534797
 11
-5.7449494949492443
 21
1.6603535353534797
  0
LINE
  8
0
 62
50
  6
CONTINUOUS
 10
-5.7449494949492443
 20
-2.506313131313016
 11
-5.2398989898987596
 21
-2.5063131313130143
  0
LINE
  8
0
 62
50
  6
CONTINUOUS
 10
-5.2398989898987596
 20
-4.5746461927375544
 11
-5.7449494949492443
 21
-4.5746461927375544
  0
CIRCLE
  8
0
 62
140
  6
CONTINUOUS
 10
-7.1969696969704176
 20
-0.42297979797607627
 40
0.88383838383834723
  0
LINE
  8
249
 62
5
  6
DASHDOT
 10
-8.2575757575764346
 20
-0.42297979797607627
 11
-6.1363636363644005
 21
-0.42297979797607627
  0
LINE
  8
249
 62
5
  6
DASHDOT
 10
-7.1969696969704176
 20
-1.4835858585820936
 11
-7.1969696969704176
 21
0.63762626262993927
  0
INSERT
  8
249
 62
50
  6
DASHDOT
  2
TELL_2
 10
-7.1969696969704176
 20
-0.42297979797607627
 41
1.0
 42
1.0
 50
0.0
  0
INSERT
  8
0
 62
5
  6
CONTINUOUS
  2
TELL_3
 10
-11.553030303029823
 20
-1.0606060606060166
 41
1.0
 42
1.0
 50
0.0
  0
LINE
  8
0
 62
50
  6
CONTINUOUS
 10
-5.8207070707068294
 20
1.218434343434293
 11
-10.732323232322788
 21
1.218434343434293
  0
LINE
  8
0
 62
50
  6
CONTINUOUS
 10
-10.732323232322788
 20
1.218434343434293
 11
-10.732323232322788
 21
0.83964646464642989
  0
LINE
  8
0
 62
50
  6
CONTINUOUS
 10
-5.8207070707068294
 20
-2.0643939393938537
 11
-12.37373737373686
 21
-2.0643939393938537
  0
LINE
  8
0
 62
50
  6
CONTINUOUS
 10
-12.37373737373686
 20
-2.0643939393938537
 11
-12.37373737373686
 21
-0.93434343434339562
  0
LINE
  8
0
 62
5
  6
DASHDOT
 10
-5.8712121212118769
 20
-4.0845959595957906
 11
-5.1136363636361519
 21
-4.0845959595957906
  0
LINE
  8
0
 62
5
  6
DASHDOT
 10
-5.8712121212118769
 20
2.8598484848483658
 11
-5.1136363636361519
 21
2.8598484848483658
  0
ENDBLK
  0
BLOCK
  8
249
 62
5
  6
DASHDOT
  2
TELL_6
 70
0
 10
7.4494949494946479
 20
-0.42297979797976537
  0
ARC
  8
249
 62
5
  6
CONTINUOUS
 10
7.4494949494946479
 20
-0.42297979797976537
 40
0.30132575757574503
 50
175.00000000000003
 51
90
  0
CIRCLE
  8
249
 62
50
  6
CONTINUOUS
 10
7.4494949494946479
 20
-0.42297979797976537
 40
0.37878787878786307
  0
LINE
  8
249
 62
5
  6
DASHDOT
 10
7.4494949494946479
 20
-1.0542929292928704
 11
7.4494949494946479
 21
0.20833333333333975
  0
LINE
  8
249
 62
5
  6
DASHDOT
 10
6.8181818181815421
 20
-0.42297979797976537
 11
8.0808080808077527
 21
-0.42297979797976537
  0
ENDBLK
  0
BLOCK
  8
0
 62
140
  6
CONTINUOUS
  2
TELL_8
 70
0
 10
11.805555555554552
 20
-0.11363636363821068
  0
LINE
  8
0
 62
50
  6
CONTINUOUS
 10
10.98484848484803
 20
-0.93434343434339562
 11
10.98484848484803
 21
0.83333333332959347
  0
LINE
  8
0
 62
50
  6
CONTINUOUS
 10
10.98484848484803
 20
0.83333333332959347
 11
11.174242424240928
 21
0.83333333333329873
  0
ARC
  8
0
 62
50
  6
CONTINUOUS
 10
11.17424242424196
 20
0.4545454545417304
 40
0.37878787878786307
 50
5.6045614227115074e-010
 51
90
  0
LINE
  8
0
 62
50
  6
CONTINUOUS
 10
11.553030303029823
 20
0.45454545454543566
 11
11.553030303029823
 21
-3.7045563025723128e-012
  0
ARC
  8
0
 62
50
  6
CONTINUOUS
 10
11.805555555555065
 20
-3.7063506024100911e-012
 40
0.25252525252524133
 50
179.99999999999969
 51
5.0888874903416268e-013
  0
LINE
  8
0
 62
50
  6
CONTINUOUS
 10
12.058080808079277
 20
-3.7045563025723128e-012
 11
12.058080808079277
 21
0.45454545454543566
  0
ARC
  8
0
 62
50
  6
CONTINUOUS
 10
12.436868686868172
 20
0.45454545454173223
 40
0.37878787878786307
 50
90
 51
179.99999999943981
  0
LINE
  8
0
 62
50
  6
CONTINUOUS
 10
12.43686868686714
 20
0.83333333333329873
 11
12.626262626262104
 21
0.83333333332959525
  0
LINE
  8
0
 62
50
  6
CONTINUOUS
 10
12.62626262626107
 20
0.83333333332959525
 11
12.62626262626107
 21
-0.93434343434339562
  0
ARC
  8
0
 62
50
  6
CONTINUOUS
 10
12.499999999999483
 20
-0.9343434343470991
 40
0.12626262626262102
 50
270
 51
1.6805542048241602e-009
  0
LINE
  8
0
 62
50
  6
CONTINUOUS
 10
12.499999999998449
 20
-1.0606060606060166
 11
11.111111111109619
 21
-1.0606060606097201
  0
ARC
  8
0
 62
50
  6
CONTINUOUS
 10
11.111111111110651
 20
-0.9343434343470991
 40
0.12626262626262102
 50
179.99999999831945
 51
270
  0
ENDBLK
  0
BLOCK
  8
0
 62
5
  6
CONTINUOUS
  2
TELL_7
 70
0
 10
11.805555555555065
 20
-1.0606060606060166
  0
INSERT
  8
0
 62
140
  6
CONTINUOUS
  2
TELL_8
 10
11.805555555554552
 20
-0.11363636363821068
 41
1.0
 42
1.0
 50
0.0
  0
LINE
  8
0
 62
50
  6
CONTINUOUS
 10
10.984848484846998
 20
-0.93434343434339562
 11
10.98484848484803
 21
0.83333333332959347
  0
LINE
  8
0
 62
50
  6
CONTINUOUS
 10
10.98484848484803
 20
0.83333333332959347
 11
11.174242424240928
 21
0.83333333333329873
  0
LINE
  8
0
 62
50
  6
CONTINUOUS
 10
11.553030303028793
 20
0.45454545454543566
 11
11.553030303029823
 21
-3.7045563025723128e-012
  0
LINE
  8
0
 62
50
  6
CONTINUOUS
 10
12.058080808080307
 20
-3.7045563025723128e-012
 11
12.058080808079277
 21
0.45454545454543566
  0
LINE
  8
0
 62
50
  6
CONTINUOUS
 10
12.43686868686714
 20
0.83333333333329873
 11
12.626262626262104
 21
0.83333333332959525
  0
LINE
  8
0
 62
50
  6
CONTINUOUS
 10
12.626262626262104
 20
0.83333333332959525
 11
12.62626262626107
 21
-0.93434343434339562
  0
LINE
  8
0
 62
50
  6
CONTINUOUS
 10
12.499999999998449
 20
-1.0606060606060166
 11
11.111111111109619
 21
-1.0606060606097201
  0
ARC
  8
0
 62
50
  6
CONTINUOUS
 10
11.805555555555065
 20
-3.7063506024100911e-012
 40
0.25252525252524133
 50
179.99999999999969
 51
5.0888874903416268e-013
  0
ARC
  8
0
 62
50
  6
CONTINUOUS
 10
11.17424242424196
 20
0.4545454545417304
 40
0.37878787878786307
 50
5.6045614227115074e-010
 51
90
  0
ARC
  8
0
 62
50
  6
CONTINUOUS
 10
12.436868686868172
 20
0.45454545454173223
 40
0.37878787878786307
 50
90
 51
179.99999999943981
  0
ARC
  8
0
 62
50
  6
CONTINUOUS
 10
11.111111111110651
 20
-0.9343434343470991
 40
0.12626262626262102
 50
179.99999999831945
 51
270
  0
ARC
  8
0
 62
50
  6
CONTINUOUS
 10
12.499999999999483
 20
-0.9343434343470991
 40
0.12626262626262102
 50
270
 51
1.6805542048241602e-009
  0
LINE
  8
0
 62
5
  6
DASHDOT
 10
11.502525252524777
 20
-3.7063506024100911e-012
 11
12.108585858585355
 21
-3.7063506024100911e-012
  0
LINE
  8
0
 62
5
  6
DASHDOT
 10
11.805555555555065
 20
-0.30303030303399575
 11
11.805555555555065
 21
0.30303030302658301
  0
ENDBLK
  0
BLOCK
  8
0
 62
5
  6
DASHDOT
  2
TELL_5
 70
0
 10
5.4924242424240157
 20
0
  0
LINE
  8
0
 62
50
  6
CONTINUOUS
 10
8.3333333333329982
 20
0.83964646464644488
 11
8.3333333333329946
 21
-1.6856060606059755
  0
LINE
  8
0
 62
50
  6
CONTINUOUS
 10
6.0732323232320775
 20
-2.0643939393938386
 11
6.0732323232320811
 21
-1.6856060606059755
  0
LINE
  8
0
 62
50
  6
CONTINUOUS
 10
6.0732323232320811
 20
0.83964646464644488
 11
6.0732323232320811
 21
1.2184343434343079
  0
LINE
  8
0
 62
50
  6
CONTINUOUS
 10
5.9974747474745058
 20
-5.1578282828280555
 11
5.4924242424240219
 21
-5.1578282828280555
  0
LINE
  8
0
 62
50
  6
CONTINUOUS
 10
5.4924242424240219
 20
-5.1578282828280555
 11
5.4924242424240219
 21
4.3118686868685216
  0
LINE
  8
0
 62
50
  6
CONTINUOUS
 10
5.4924242424240219
 20
4.3118686868685216
 11
5.9974747474745058
 21
4.3118686868685216
  0
LINE
  8
0
 62
50
  6
CONTINUOUS
 10
5.9974747474745058
 20
-5.1578282828280555
 11
5.9974747474745058
 21
4.3118686868685216
  0
LINE
  8
0
 62
50
  6
CONTINUOUS
 10
5.4924242424240219
 20
3.7286865967780121
 11
5.9974747474745058
 21
3.7286865967780121
  0
LINE
  8
0
 62
50
  6
CONTINUOUS
 10
5.9974747474745058
 20
-4.574646192737557
 11
5.4924242424240219
 21
-4.574646192737557
  0
LINE
  8
0
 62
5
  6
DASHDOT
 10
5.366161616161401
 20
-4.0845959595957764
 11
6.1237373737371268
 21
-4.0845959595957764
  0
LINE
  8
0
 62
5
  6
DASHDOT
 10
5.366161616161401
 20
2.8598484848502275
 11
6.1237373737371268
 21
2.8598484848502275
  0
INSERT
  8
249
 62
5
  6
DASHDOT
  2
TELL_6
 10
7.4494949494946479
 20
-0.42297979797976537
 41
1.0
 42
1.0
 50
0.0
  0
INSERT
  8
0
 62
5
  6
CONTINUOUS
  2
TELL_7
 10
11.805555555555065
 20
-1.0606060606060166
 41
1.0
 42
1.0
 50
0.0
  0
LINE
  8
0
 62
50
  6
CONTINUOUS
 10
6.0732323232320713
 20
1.218434343434293
 11
10.98484848484803
 21
1.218434343434293
  0
LINE
  8
0
 62
50
  6
CONTINUOUS
 10
10.98484848484803
 20
1.218434343434293
 11
10.98484848484803
 21
0.83964646464642989
  0
LINE
  8
0
 62
50
  6
CONTINUOUS
 10
5.9974747474744987
 20
0.83964646464642989
 11
10.98484848484803
 21
0.83964646464642989
  0
LINE
  8
0
 62
50
  6
CONTINUOUS
 10
5.9974747474744987
 20
-1.6856060606059906
 11
12.626262626262102
 21
-1.6856060606059906
  0
LINE
  8
0
 62
50
  6
CONTINUOUS
 10
6.0732323232320713
 20
-2.0643939393938537
 11
12.626262626262102
 21
-2.0643939393938537
  0
LINE
  8
0
 62
50
  6
CONTINUOUS
 10
12.626262626262102
 20
-2.0643939393938537
 11
12.626262626262102
 21
-0.93434343434339562
  0
ENDBLK
  0
BLOCK
  8
0
 62
5
  6
CONTINUOUS
  2
TELL_10
 70
0
 10
-0.18939393939393154
 20
-14.627525252524645
  0
LINE
  8
0
 62
50
  6
CONTINUOUS
 10
0.94696969696966304
 20
-13.806818181817604
 11
0.94696969696966304
 21
-15.448232323231682
  0
LINE
  8
0
 62
50
  6
CONTINUOUS
 10
0.31565656565655614
 20
-14.880050505049887
 11
0.94696969696966304
 21
-14.880050505049887
  0
LINE
  8
0
 62
50
  6
CONTINUOUS
 10
0.31565656565655614
 20
-14.374999999999403
 11
0.94696969696966304
 21
-14.374999999999403
  0
LINE
  8
0
 62
50
  6
CONTINUOUS
 10
0.31565656565655614
 20
-13.806818181817608
 11
0.31565656565655792
 21
-15.448232323231682
  0
LINE
  8
0
 62
50
  6
CONTINUOUS
 10
0.94696969696966304
 20
-15.448232323231682
 11
-0.18939393939392257
 21
-15.448232323231682
  0
LINE
  8
0
 62
50
  6
CONTINUOUS
 10
0.94696969696965594
 20
-13.806818181817608
 11
-0.18939393939393154
 21
-13.806818181817608
  0
LINE
  8
0
 62
5
  6
DASHDOT
 10
0.18939393939393334
 20
-14.627525252524645
 11
1.073232323232284
 21
-14.627525252524645
  0
ENDBLK
  0
BLOCK
  8
0
 62
5
  6
DASHDOT
  2
TELL_9
 70
0
 10
0
 20
-8.3143939393935931
  0
LINE
  8
0
 62
50
  6
CONTINUOUS
 10
-0.36445707070703742
 20
-9.8926767676763383
 11
-0.36445707070703742
 21
-10.650252525252064
  0
LINE
  8
0
 62
50
  6
CONTINUOUS
 10
-0.36445707070703742
 20
-10.650252525252064
 11
-0.44191919191915385
 21
-10.572790404039946
  0
LINE
  8
0
 62
50
  6
CONTINUOUS
 10
-0.44191919191915563
 20
-9.9701388888884548
 11
-0.36445707070703742
 21
-9.8926767676763383
  0
LINE
  8
0
 62
50
  6
CONTINUOUS
 10
-0.18939393939390822
 20
-10.650252525252064
 11
-0.36445707070703742
 21
-10.650252525252064
  0
LINE
  8
0
 62
50
  6
CONTINUOUS
 10
-0.36445707070703742
 20
-9.8926767676763383
 11
-0.1893939393939118
 21
-9.8926767676763383
  0
LINE
  8
0
 62
50
  6
CONTINUOUS
 10
1.5277777777777353
 20
-10.890151515151041
 11
1.4174870338514458
 21
-11.000442259077332
  0
LINE
  8
0
 62
50
  6
CONTINUOUS
 10
1.4174870338514385
 20
-9.5424870338510654
 11
1.5277777777777353
 21
-9.652777777777354
  0
LINE
  8
0
 62
50
  6
CONTINUOUS
 10
0.93434343434341061
 20
-9.3876262626258544
 11
1.0065561979135187
 21
-9.542487033851069
  0
LINE
  8
0
 62
50
  6
CONTINUOUS
 10
1.0065561979135187
 20
-11.000442259077332
 11
0.93434343434341782
 21
-11.155303030302544
  0
LINE
  8
0
 62
50
  6
CONTINUOUS
 10
0.82070707070705462
 20
-9.3876262626258544
 11
0.93434343434341061
 21
-9.3876262626258544
  0
LINE
  8
0
 62
50
  6
CONTINUOUS
 10
0.93434343434341782
 20
-11.155303030302544
 11
0.82070707070705462
 21
-11.15530303030255
  0
LINE
  8
0
 62
50
  6
CONTINUOUS
 10
1.5277777777777279
 20
-9.652777777777354
 11
1.5277777777777353
 21
-10.890151515151041
  0
LINE
  8
0
 62
50
  6
CONTINUOUS
 10
-0.44191919191915563
 20
-9.9701388888884548
 11
-0.44191919191915385
 21
-10.572790404039946
  0
LINE
  8
0
 62
50
  6
CONTINUOUS
 10
1.4174870338514458
 20
-11.000442259077332
 11
1.0065561979135187
 21
-11.000442259077332
  0
LINE
  8
0
 62
50
  6
CONTINUOUS
 10
1.4174870338514385
 20
-10.635953452770767
 11
1.4746352446490039
 21
-10.50124383476356
  0
LINE
  8
0
 62
50
  6
CONTINUOUS
 10
1.0065561979135187
 20
-9.542487033851069
 11
1.4174870338514385
 21
-9.5424870338510654
  0
LINE
  8
0
 62
50
  6
CONTINUOUS
 10
0.93434343434341061
 20
-9.3876262626258544
 11
0.93434343434341782
 21
-11.155303030302544
  0
LINE
  8
0
 62
50
  6
CONTINUOUS
 10
1.4174870338514385
 20
-10.635953452770767
 11
1.0065561979135187
 21
-10.635953452770769
  0
LINE
  8
0
 62
50
  6
CONTINUOUS
 10
1.0065561979135187
 20
-9.9069758401576333
 11
1.4174870338514385
 21
-9.9069758401576316
  0
LINE
  8
0
 62
50
  6
CONTINUOUS
 10
-0.18939393939391538
 20
-8.8952020202016353
 11
0.82070707070705462
 21
-8.8952020202016353
  0
LINE
  8
0
 62
50
  6
CONTINUOUS
 10
-2.0833333333332327
 20
-8.8194444444440609
 11
-2.0833333333332344
 21
-8.3143939393935771
  0
LINE
  8
0
 62
50
  6
CONTINUOUS
 10
2.3358585858584999
 20
-8.3143939393935717
 11
2.3358585858584999
 21
-8.8194444444440556
  0
LINE
  8
0
 62
50
  6
CONTINUOUS
 10
-2.0833333333332344
 20
-8.3143939393935771
 11
2.3358585858584999
 21
-8.3143939393935717
  0
LINE
  8
0
 62
50
  6
CONTINUOUS
 10
1.3257575757575386
 20
-8.3143939393935717
 11
1.3257575757575386
 21
-8.8194444444440556
  0
LINE
  8
0
 62
50
  6
CONTINUOUS
 10
-2.0833333333332327
 20
-8.8194444444440609
 11
2.3358585858584999
 21
-8.8194444444440556
  0
LINE
  8
0
 62
50
  6
CONTINUOUS
 10
-1.0732323232322643
 20
-8.8194444444440592
 11
-1.0732323232322662
 21
-8.3143939393935753
  0
POLYLINE
  8
0
 62
50
  6
CONTINUOUS
 66
1
  0
VERTEX
  8
0
 62
50
  6
CONTINUOUS
 10
1.4174870338514385
 20
-10.635953452770767
  0
VERTEX
  8
0
 62
50
  6
CONTINUOUS
 10
1.4746352446490039
 20
-10.703308261774369
  0
VERTEX
  8
0
 62
50
  6
CONTINUOUS
 10
1.5054124924963295
 20
-10.762539086761027
  0
VERTEX
  8
0
 62
50
  6
CONTINUOUS
 10
1.5151515151514703
 20
-10.818197855924049
  0
VERTEX
  8
0
 62
50
  6
CONTINUOUS
 10
1.5054124924963295
 20
-10.873856625087074
  0
VERTEX
  8
0
 62
50
  6
CONTINUOUS
 10
1.4746352446490039
 20
-10.93308745007373
  0
VERTEX
  8
0
 62
50
  6
CONTINUOUS
 10
1.4174870338514458
 20
-11.000442259077332
  0
SEQEND
  8
0
  0
POLYLINE
  8
0
 62
50
  6
CONTINUOUS
 66
1
  0
VERTEX
  8
0
 62
50
  6
CONTINUOUS
 10
1.4174870338514385
 20
-9.5424870338510654
  0
VERTEX
  8
0
 62
50
  6
CONTINUOUS
 10
1.4746352446490039
 20
-9.6098418428546672
  0
VERTEX
  8
0
 62
50
  6
CONTINUOUS
 10
1.5054124924963295
 20
-9.6690726678413252
  0
VERTEX
  8
0
 62
50
  6
CONTINUOUS
 10
1.5151515151514703
 20
-9.7247314370043494
  0
VERTEX
  8
0
 62
50
  6
CONTINUOUS
 10
1.5054124924963295
 20
-9.7803902061673718
  0
VERTEX
  8
0
 62
50
  6
CONTINUOUS
 10
1.4746352446490039
 20
-9.8396210311540298
  0
VERTEX
  8
0
 62
50
  6
CONTINUOUS
 10
1.4174870338514385
 20
-9.9069758401576316
  0
VERTEX
  8
0
 62
50
  6
CONTINUOUS
 10
1.4746352446490039
 20
-10.041685458164837
  0
VERTEX
  8
0
 62
50
  6
CONTINUOUS
 10
1.5054124924963295
 20
-10.160147108138153
  0
VERTEX
  8
0
 62
50
  6
CONTINUOUS
 10
1.5151515151514703
 20
-10.271464646464198
  0
VERTEX
  8
0
 62
50
  6
CONTINUOUS
 10
1.5054124924963295
 20
-10.382782184790246
  0
VERTEX
  8
0
 62
50
  6
CONTINUOUS
 10
1.4746352446490039
 20
-10.50124383476356
  0
SEQEND
  8
0
  0
POLYLINE
  8
0
 62
50
  6
CONTINUOUS
 66
1
  0
VERTEX
  8
0
 62
50
  6
CONTINUOUS
 10
1.0065561979135187
 20
-9.542487033851069
  0
VERTEX
  8
0
 62
50
  6
CONTINUOUS
 10
1.0332048462582788
 20
-9.6098418428546708
  0
VERTEX
  8
0
 62
50
  6
CONTINUOUS
 10
1.0475565126264181
 20
-9.669072667841327
  0
VERTEX
  8
0
 62
50
  6
CONTINUOUS
 10
1.0520978934734606
 20
-9.7247314370043529
  0
VERTEX
  8
0
 62
50
  6
CONTINUOUS
 10
1.0475565126264181
 20
-9.7803902061673753
  0
VERTEX
  8
0
 62
50
  6
CONTINUOUS
 10
1.0332048462582788
 20
-9.8396210311540315
  0
VERTEX
  8
0
 62
50
  6
CONTINUOUS
 10
1.0065561979135187
 20
-9.9069758401576333
  0
VERTEX
  8
0
 62
50
  6
CONTINUOUS
 10
1.0332048462582788
 20
-10.041685458164837
  0
VERTEX
  8
0
 62
50
  6
CONTINUOUS
 10
1.0475565126264181
 20
-10.160147108138155
  0
VERTEX
  8
0
 62
50
  6
CONTINUOUS
 10
1.0520978934734606
 20
-10.271464646464198
  0
VERTEX
  8
0
 62
50
  6
CONTINUOUS
 10
1.0475565126264181
 20
-10.382782184790246
  0
VERTEX
  8
0
 62
50
  6
CONTINUOUS
 10
1.0332048462582788
 20
-10.501243834763562
  0
VERTEX
  8
0
 62
50
  6
CONTINUOUS
 10
1.0065561979135187
 20
-10.635953452770769
  0
VERTEX
  8
0
 62
50
  6
CONTINUOUS
 10
1.0332048462582788
 20
-10.703308261774369
  0
VERTEX
  8
0
 62
50
  6
CONTINUOUS
 10
1.0475565126264181
 20
-10.762539086761027
  0
VERTEX
  8
0
 62
50
  6
CONTINUOUS
 10
1.0520978934734606
 20
-10.818197855924051
  0
VERTEX
  8
0
 62
50
  6
CONTINUOUS
 10
1.0475565126264252
 20
-10.873856625087074
  0
VERTEX
  8
0
 62
50
  6
CONTINUOUS
 10
1.0332048462582788
 20
-10.93308745007373
  0
VERTEX
  8
0
 62
50
  6
CONTINUOUS
 10
1.0065561979135187
 20
-11.000442259077332
  0
SEQEND
  8
0
  0
LINE
  8
0
 62
5
  6
DASHDOT
 10
1.0765799026667738e-014
 20
-8.9457070707066819
 11
1.0765799026667738e-014
 21
-8.1881313131309561
  0
ARC
  8
0
 62
50
  6
CONTINUOUS
 10
-0.18939393939392615
 20
-8.9457070707066819
 40
0.12626262626262102
 50
23.578178481056721
 51
90
  0
ARC
  8
0
 62
50
  6
CONTINUOUS
 10
-0.18939393939392615
 20
-8.9457070707066819
 40
0.63333011131234129
 50
4.5739212603568831
 51
11.499714744544521
  0
ARC
  8
0
 62
5
  6
HIDDEN
 10
-0.18939393939392615
 20
-8.9457070707066819
 40
0.63333011131234129
 50
11.499714744544521
 51
94.573921254687448
  0
INSERT
  8
0
 62
5
  6
CONTINUOUS
  2
TELL_10
 10
-0.18939393939393154
 20
-14.627525252524645
 41
1.0
 42
1.0
 50
0.0
  0
LINE
  8
0
 62
50
  6
CONTINUOUS
 10
-0.18939393939393154
 20
-8.8952020202016513
 11
-0.18939393939393154
 21
-15.448232323231682
  0
LINE
  8
0
 62
50
  6
CONTINUOUS
 10
0.82070707070703663
 20
-13.806818181817608
 11
0.82070707070703663
 21
-8.8952020202016513
  0
LINE
  8
0
 62
5
  6
CONTINUOUS
 10
-0.44191919191917362
 20
-10.571969696969257
 11
-0.18939393939393154
 21
-10.571969696969257
  0
LINE
  8
0
 62
5
  6
CONTINUOUS
 10
-0.44191919191917362
 20
-9.9696969696965549
 11
-0.18939393939393154
 21
-9.9696969696965549
  0
LINE
  8
0
 62
5
  6
DASHDOT
 10
-0.56818181818179458
 20
-10.270833333332908
 11
1.7045454545453838
 21
-10.270833333332908
  0
ENDBLK
  0
BLOCK
  8
0
 62
140
  6
CONTINUOUS
  2
TELL_11
 70
0
 10
0.63131313131313027
 20
-0.11363636363635785
  0
LINE
  8
0
 62
50
  6
CONTINUOUS
 10
0.44191919191919871
 20
-1.0606060606060155
 11
0.44191919191919871
 21
0.71338383838382391
  0
LINE
  8
0
 62
50
  6
CONTINUOUS
 10
0.44191919191919693
 20
0.71338383838382391
 11
0.82070707070706184
 21
0.71338383838382391
  0
LINE
  8
0
 62
50
  6
CONTINUOUS
 10
0.82070707070706184
 20
0.71338383838382391
 11
0.82070707070706184
 21
-1.0606060606060137
  0
LINE
  8
0
 62
50
  6
CONTINUOUS
 10
0.82070707070706184
 20
-1.0606060606060137
 11
0.94696969696968281
 21
-1.0606060606060137
  0
LINE
  8
0
 62
50
  6
CONTINUOUS
 10
0.94696969696968281
 20
-1.0606060606060137
 11
0.94696969696968281
 21
0.83333333333330162
  0
LINE
  8
0
 62
50
  6
CONTINUOUS
 10
0.94696969696968281
 20
0.83333333333330162
 11
0.3156565656565759
 21
0.83333333333329984
  0
LINE
  8
0
 62
50
  6
CONTINUOUS
 10
0.31565656565657768
 20
0.83333333333329984
 11
0.31565656565657768
 21
-1.0606060606060155
  0
LINE
  8
0
 62
50
  6
CONTINUOUS
 10
0.31565656565657768
 20
-1.0606060606060155
 11
0.44191919191919871
 21
-1.0606060606060155
  0
ENDBLK
  0
BLOCK
  8
0
 62
5
  6
DASHDOT
  2
3_130__L_50__3_127_-
 70
0
 10
0
 20
0
  0
INSERT
  8
0
 62
140
  6
CONTINUOUS
  2
TELL_11
 10
0.63131313131313027
 20
-0.11363636363635785
 41
1.0
 42
1.0
 50
0.0
  0
LINE
  8
0
 62
50
  6
CONTINUOUS
 10
-2.0833333333332469
 20
3.7286865967780138
 11
-1.0732323232322787
 21
4.3118686868685216
  0
LINE
  8
0
 62
50
  6
CONTINUOUS
 10
-1.0732323232322787
 20
4.3118686868685216
 11
1.325757575757528
 21
4.3118686868685252
  0
LINE
  8
0
 62
50
  6
CONTINUOUS
 10
1.325757575757528
 20
4.3118686868685252
 11
2.3358585858584888
 21
3.7286865967780249
  0
LINE
  8
0
 62
50
  6
CONTINUOUS
 10
2.3358585858584888
 20
3.7286865967780249
 11
2.3358585858584924
 21
1.6603535353534833
  0
LINE
  8
0
 62
50
  6
CONTINUOUS
 10
2.3358585858584924
 20
1.6603535353534833
 11
1.7891253763986399
 21
1.3446969696969291
  0
LINE
  8
0
 62
50
  6
CONTINUOUS
 10
1.7891253763986399
 20
1.3446969696969291
 11
-0.22727272727271569
 21
1.3446969696969291
  0
LINE
  8
0
 62
50
  6
CONTINUOUS
 10
-0.22727272727271211
 20
-2.1906565656564596
 11
1.7891253763986472
 21
-2.1906565656564596
  0
LINE
  8
0
 62
50
  6
CONTINUOUS
 10
1.7891253763986472
 20
-2.1906565656564596
 11
2.3358585858584959
 21
-2.5063131313130125
  0
LINE
  8
0
 62
50
  6
CONTINUOUS
 10
2.3358585858584959
 20
-2.5063131313130125
 11
2.3358585858584999
 21
-4.5746461927375508
  0
LINE
  8
0
 62
50
  6
CONTINUOUS
 10
2.3358585858584999
 20
-4.5746461927375508
 11
1.3257575757575386
 21
-5.1578282828280519
  0
LINE
  8
0
 62
50
  6
CONTINUOUS
 10
1.3257575757575386
 20
-5.1578282828280519
 11
-1.0732323232322751
 21
-5.1578282828280555
  0
LINE
  8
0
 62
50
  6
CONTINUOUS
 10
-1.0732323232322751
 20
-5.1578282828280555
 11
-2.0833333333332362
 21
-4.5746461927375561
  0
LINE
  8
0
 62
50
  6
CONTINUOUS
 10
-2.0833333333332362
 20
-4.5746461927375561
 11
-2.0833333333332469
 21
3.7286865967780138
  0
LINE
  8
0
 62
50
  6
CONTINUOUS
 10
0.44191919191920048
 20
-2.0643939393938386
 11
0.58687503751202941
 21
-2.0355604289814617
  0
LINE
  8
0
 62
50
  6
CONTINUOUS
 10
0.58687503751202941
 20
-2.0355604289814617
 11
0.70976266964136681
 21
-1.9534495383281545
  0
LINE
  8
0
 62
50
  6
CONTINUOUS
 10
0.70976266964136681
 20
-1.9534495383281545
 11
0.79187356029467226
 21
-1.830561906198819
  0
LINE
  8
0
 62
50
  6
CONTINUOUS
 10
0.79187356029467226
 20
-1.830561906198819
 11
0.82070707070706184
 21
-1.6856060606059755
  0
LINE
  8
0
 62
50
  6
CONTINUOUS
 10
0.50505050505048765
 20
2.4179292929292076
 11
0.50505050505048765
 21
3.3017676767675548
  0
LINE
  8
0
 62
50
  6
CONTINUOUS
 10
-0.50505050505048055
 20
3.301767676767553
 11
-0.50505050505048055
 21
2.4179292929292058
  0
LINE
  8
0
 62
50
  6
CONTINUOUS
 10
-0.22727272727271389
 20
0.83964646464644488
 11
0.44191919191919332
 21
0.83964646464644488
  0
LINE
  8
0
 62
50
  6
CONTINUOUS
 10
-0.063131313131305128
 20
-1.6856060606059755
 11
-0.063131313131305128
 21
0.83964646464644488
  0
LINE
  8
0
 62
50
  6
CONTINUOUS
 10
0.82070707070705462
 20
0.83964646464644488
 11
0.79187356029466505
 21
0.98460231023926481
  0
LINE
  8
0
 62
50
  6
CONTINUOUS
 10
0.79187356029466505
 20
0.98460231023926481
 11
0.7097626696413597
 21
1.1074899423686004
  0
LINE
  8
0
 62
50
  6
CONTINUOUS
 10
0.7097626696413597
 20
1.1074899423686004
 11
0.5868750375120223
 21
1.1896008330219077
  0
LINE
  8
0
 62
50
  6
CONTINUOUS
 10
0.5868750375120223
 20
1.1896008330219077
 11
0.44191919191919155
 21
1.2184343434343079
  0
LINE
  8
0
 62
50
  6
CONTINUOUS
 10
0.44191919191918255
 20
0.83964646464644488
 11
0.44191919191918255
 21
0.83333333333330162
  0
LINE
  8
0
 62
50
  6
CONTINUOUS
 10
-0.1893939393939118
 20
1.2184343434343079
 11
0.44191919191919155
 21
1.2184343434343079
  0
LINE
  8
0
 62
50
  6
CONTINUOUS
 10
0.82070707070705462
 20
0.83964646464644488
 11
0.82070707070705462
 21
0.83333333333330339
  0
LINE
  8
0
 62
50
  6
CONTINUOUS
 10
-0.1893939393939118
 20
0.83964646464644488
 11
-0.1893939393939118
 21
1.2184343434343079
  0
LINE
  8
0
 62
50
  6
CONTINUOUS
 10
0.44191919191919871
 20
-1.6856060606059755
 11
0.44191919191919871
 21
-1.0606060606060155
  0
LINE
  8
0
 62
50
  6
CONTINUOUS
 10
0.44191919191919871
 20
-1.0606060606060155
 11
0.44191919191919871
 21
0.71338383838382391
  0
LINE
  8
0
 62
50
  6
CONTINUOUS
 10
0.44191919191919871
 20
-1.0606060606060155
 11
0.31565656565657768
 21
-1.0606060606060155
  0
LINE
  8
0
 62
50
  6
CONTINUOUS
 10
0.94696969696968281
 20
-1.0606060606060137
 11
0.82070707070706184
 21
-1.0606060606060137
  0
LINE
  8
0
 62
50
  6
CONTINUOUS
 10
0.31565656565657768
 20
-1.0606060606060155
 11
0.31565656565657768
 21
0.83333333333329984
  0
LINE
  8
0
 62
50
  6
CONTINUOUS
 10
0.94696969696968281
 20
-1.0606060606060137
 11
0.94696969696968281
 21
0.83333333333330162
  0
LINE
  8
0
 62
50
  6
CONTINUOUS
 10
0.82070707070706184
 20
-1.6856060606059755
 11
0.82070707070706184
 21
-1.0606060606060137
  0
LINE
  8
0
 62
50
  6
CONTINUOUS
 10
0.82070707070706184
 20
-1.0606060606060137
 11
0.82070707070706184
 21
0.71338383838382391
  0
LINE
  8
0
 62
50
  6
CONTINUOUS
 10
-0.22727272727271211
 20
-1.6856060606059755
 11
0.44191919191919871
 21
-1.6856060606059755
  0
LINE
  8
0
 62
50
  6
CONTINUOUS
 10
0.44191919191920048
 20
-2.0643939393938386
 11
-0.18939393939390461
 21
-2.0643939393938386
  0
LINE
  8
0
 62
50
  6
CONTINUOUS
 10
-0.18939393939390461
 20
-2.0643939393938386
 11
-0.18939393939390642
 21
-1.6856060606059755
  0
LINE
  8
0
 62
50
  6
CONTINUOUS
 10
0.3156565656565759
 20
0.83333333333329984
 11
0.94696969696968281
 21
0.83333333333330162
  0
LINE
  8
0
 62
50
  6
CONTINUOUS
 10
0.82070707070706184
 20
0.71338383838382391
 11
0.44191919191919693
 21
0.71338383838382391
  0
ARC
  8
0
 62
50
  6
CONTINUOUS
 10
-0.22727272727271569
 20
1.0921717171716852
 40
0.25252525252524199
 50
90
 51
270
  0
ARC
  8
0
 62
50
  6
CONTINUOUS
 10
-0.22727272727271211
 20
-1.9381313131312194
 40
0.25252525252524194
 50
90
 51
270
  0
CIRCLE
  8
0
 62
50
  6
CONTINUOUS
 10
8.9714991888897809e-015
 20
-4.0845959595957764
 40
0.52398989898987769
  0
ARC
  8
0
 62
50
  6
CONTINUOUS
 10
0
 20
3.3017676767675548
 40
0.50505050505048366
 50
359.99999999999989
 51
180.00000000000031
  0
LINE
  8
0
 62
5
  6
DASHDOT
 10
-0.60606060606058054
 20
2.8598484848502275
 11
0.60606060606057877
 21
2.8598484848502275
  0
LINE
  8
0
 62
5
  6
DASHDOT
 10
0
 20
1.8253285698206034
 11
0
 21
3.9078282828281354
  0
LINE
  8
0
 62
5
  6
DASHDOT
 10
-0.62878787878784426
 20
-4.0845959595957764
 11
0.62878787878786213
 21
-4.0845959595957764
  0
LINE
  8
0
 62
5
  6
DASHDOT
 10
8.9714991888897809e-015
 20
-4.7133838383836295
 11
8.9714991888897809e-015
 21
-3.4558080808079237
  0
ARC
  8
0
 62
50
  6
CONTINUOUS
 10
0
 20
2.4179292929292058
 40
0.50505050505048321
 50
179.99999999958129
 51
4.1871366270744224e-010
  0
LINE
  8
249
 62
50
  6
CONTINUOUS
 10
0.82070707070706184
 20
0.4608585858585818
 11
0.82070707070706539
 21
-1.3068181818181126
  0
LINE
  8
0
 62
5
  6
DASHDOT
 10
0.18939393939395666
 20
0
 11
1.0732323232323038
 21
0
  0
LINE
  8
0
 62
5
  6
DASHDOT
 10
-0.18939393939393154
 20
-0.42297979797978047
 11
1.1994949494948997
 21
-0.42297979797978047
  0
ENDBLK
  0
BLOCK
  8
0
 62
50
  6
CONTINUOUS
  2
FIXATIONF09
 70
0
 10
0
 20
0
  0
INSERT
  8
0
 62
5
  6
DASHDOT
  2
TELL_1
 10
-5.2398989898987729
 20
0
 41
1.0
 42
1.0
 50
0.0
  0
INSERT
  8
0
 62
5
  6
DASHDOT
  2
TELL_5
 10
5.4924242424240157
 20
0
 41
1.0
 42
1.0
 50
0.0
  0
INSERT
  8
0
 62
5
  6
DASHDOT
  2
TELL_9
 10
0
 20
-8.3143939393935931
 41
1.0
 42
1.0
 50
0.0
  0
INSERT
  8
0
 62
5
  6
DASHDOT
  2
3_130__L_50__3_127_-
 10
0
 20
0
 41
1.0
 42
1.0
 50
0.0
  0
ENDBLK
  0
ENDSEC
  0
SECTION
  2
ENTITIES
  0
INSERT
  8
0
 62
50
  6
CONTINUOUS
  2
FIXATIONF09
 10
0
 20
0
 41
1.0
 42
1.0
 50
0.0
  0
ENDSEC
  0
EOF
