  0
SECTION
  2
HEADER
  9
$ACADVER
  1
AC1009
  9
$EXTMIN
 10
-4.3956043956043906
 20
-10.989010989010991
  9
$EXTMAX
 10
10.989010989010987
 20
14.010989010989009
  9
$TEXTSTYLE
  7
STANDARD
  9
$DIMLFAC
 40
1
  9
$REGENMODE
 70
1
  9
$DRAGMODE
 70
2
  9
$DIMASO
 70
1
  9
$LTSCALE
 40
1.0000000000
  0
ENDSEC
  0
SECTION
  2
TABLES
  0
TABLE
  2
LTYPE
 70
2
  0
LTYPE
  2
CONTINUOUS
 70
64
  3
CONTINUOUS
 72
65
 73
0
 40
0.0000000000
  0
LTYPE
  2
DASHDOT
 70
64
  3
DASHDOT
 72
65
 73
4
 40
1.0000000000
 49
0.5000000000
 49
-0.2500000000
 49
0.0000000000
 49
-0.2500000000
  0
ENDTAB
  0
TABLE
  2
LAYER
 70
1
  0
LAYER
  2
0
 70
0
 62
2
  6
CONTINUOUS
  0
ENDTAB
  0
TABLE
  2
STYLE
 70
0
  0
STYLE
  2
Standard
 70
0
 40
0
 41
1
 50
0
 71
0
 42
2.5
  3
txt
  4

  0
ENDTAB
  0
ENDSEC
  0
SECTION
  2
BLOCKS
  0
BLOCK
  8
0
 62
5
  6
DASHDOT
  2
TELL_1
 70
0
 10
7.5549450549450539
 20
0
  0
LINE
  8
0
 62
50
  6
CONTINUOUS
 10
4.1208791208791213
 20
13.392857142857141
 11
4.4642857142857144
 21
13.736263736263735
  0
LINE
  8
0
 62
50
  6
CONTINUOUS
 10
4.4642857142857144
 20
13.736263736263735
 11
10.645604395604401
 21
13.736263736263735
  0
LINE
  8
0
 62
50
  6
CONTINUOUS
 10
10.645604395604401
 20
13.736263736263735
 11
10.989010989010987
 21
13.392857142857149
  0
LINE
  8
0
 62
50
  6
CONTINUOUS
 10
8.2692307692307701
 20
7.7197802197802172
 11
8.2692307692307701
 21
11.510989010989011
  0
LINE
  8
0
 62
50
  6
CONTINUOUS
 10
6.8406593406593403
 20
11.510989010989007
 11
6.8406593406593403
 21
7.719780219780219
  0
LINE
  8
0
 62
50
  6
CONTINUOUS
 10
4.1208791208791213
 20
0.34340659340659335
 11
10.989010989010987
 21
0.34340659340659335
  0
LINE
  8
0
 62
50
  6
CONTINUOUS
 10
10.645604395604394
 20
0.34340659340659335
 11
10.645604395604394
 21
0
  0
LINE
  8
0
 62
50
  6
CONTINUOUS
 10
4.1208791208791213
 20
0
 11
10.989010989010987
 21
0
  0
LINE
  8
0
 62
50
  6
CONTINUOUS
 10
4.4642857142857126
 20
0
 11
4.4642857142857126
 21
0.34340659340659335
  0
ARC
  8
0
 62
50
  6
CONTINUOUS
 10
7.5549450549450547
 20
7.719780219780219
 40
0.71428571428571463
 50
180
 51
359.99999999999994
  0
ARC
  8
0
 62
50
  6
CONTINUOUS
 10
7.5549450549450547
 20
11.510989010989011
 40
0.71428571428571397
 50
0
 51
180.00000000000017
  0
CIRCLE
  8
0
 62
50
  6
CONTINUOUS
 10
4.945054945054947
 20
7.9670329670329618
 40
0.27472527472527081
  0
CIRCLE
  8
0
 62
50
  6
CONTINUOUS
 10
4.9450549450549595
 20
11.26373626373624
 40
0.27472527472524932
  0
CIRCLE
  8
0
 62
50
  6
CONTINUOUS
 10
10.164835164835164
 20
11.263736263736254
 40
0.27472527472527569
  0
CIRCLE
  8
0
 62
50
  6
CONTINUOUS
 10
10.164835164835168
 20
7.9670329670329547
 40
0.27472527472528641
  0
LINE
  8
0
 62
5
  6
DASHDOT
 10
4.615384615384623
 20
7.9670329670329618
 11
5.274725274725272
 21
7.9670329670329618
  0
LINE
  8
0
 62
5
  6
DASHDOT
 10
4.945054945054947
 20
7.6373626373626378
 11
4.945054945054947
 21
8.2967032967032868
  0
LINE
  8
0
 62
5
  6
DASHDOT
 10
4.6153846153846603
 20
11.26373626373624
 11
5.2747252747252587
 21
11.26373626373624
  0
LINE
  8
0
 62
5
  6
DASHDOT
 10
4.9450549450549595
 20
10.93406593406594
 11
4.9450549450549595
 21
11.593406593406538
  0
LINE
  8
0
 62
5
  6
DASHDOT
 10
9.8351648351648233
 20
7.9670329670329547
 11
10.494505494505512
 21
7.9670329670329547
  0
LINE
  8
0
 62
5
  6
DASHDOT
 10
10.164835164835168
 20
7.6373626373626102
 11
10.164835164835168
 21
8.2967032967032992
  0
LINE
  8
0
 62
5
  6
DASHDOT
 10
9.835164835164834
 20
11.263736263736254
 11
10.494505494505495
 21
11.263736263736254
  0
LINE
  8
0
 62
5
  6
DASHDOT
 10
10.164835164835164
 20
10.934065934065924
 11
10.164835164835164
 21
11.593406593406584
  0
LINE
  8
0
 62
5
  6
DASHDOT
 10
6.5659340659340657
 20
9.615384615384615
 11
8.5439560439560438
 21
9.615384615384615
  0
CIRCLE
  8
0
 62
50
  6
CONTINUOUS
 10
7.5549450549450547
 20
12.912087912087911
 40
0.27472527472524932
  0
LINE
  8
0
 62
5
  6
DASHDOT
 10
7.2252747252747556
 20
12.912087912087911
 11
7.8846153846153539
 21
12.912087912087911
  0
LINE
  8
0
 62
50
  6
CONTINUOUS
 10
4.1208791208791204
 20
0
 11
4.1208791208791204
 21
13.392857142857141
  0
LINE
  8
0
 62
50
  6
CONTINUOUS
 10
10.989010989010987
 20
0
 11
10.989010989010987
 21
13.392857142857141
  0
LINE
  8
0
 62
5
  6
DASHDOT
 10
7.5549450549450539
 20
-0.27472527472527469
 11
7.5549450549450539
 21
14.010989010989009
  0
ENDBLK
  0
BLOCK
  8
0
 62
5
  6
DASHDOT
  2
TELL_2
 70
0
 10
0
 20
-7.5549450549450539
  0
LINE
  8
0
 62
50
  6
CONTINUOUS
 10
-3.7774725274725229
 20
-10.989010989010991
 11
-4.120879120879116
 21
-10.645604395604398
  0
LINE
  8
0
 62
50
  6
CONTINUOUS
 10
-4.120879120879116
 20
-10.645604395604398
 11
-4.1208791208791204
 21
-4.4642857142857144
  0
LINE
  8
0
 62
50
  6
CONTINUOUS
 10
-4.1208791208791204
 20
-4.4642857142857144
 11
-3.7774725274725292
 21
-4.1208791208791222
  0
LINE
  8
0
 62
50
  6
CONTINUOUS
 10
-3.1181318681318664
 20
-6.3461538461538476
 11
-3.1181318681318642
 21
-8.7637362637362646
  0
LINE
  8
0
 62
50
  6
CONTINUOUS
 10
-1.689560439560436
 20
-8.7637362637362628
 11
-1.689560439560438
 21
-6.3461538461538458
  0
LINE
  8
0
 62
50
  6
CONTINUOUS
 10
-3.7774725274725229
 20
-10.989010989010991
 11
4.8801012071435445e-015
 21
-10.989010989010987
  0
LINE
  8
0
 62
50
  6
CONTINUOUS
 10
-3.7774725274725292
 20
-4.1208791208791222
 11
0
 21
-4.1208791208791204
  0
LINE
  8
0
 62
50
  6
CONTINUOUS
 10
0
 20
-4.1208791208791204
 11
4.8801012071435445e-015
 21
-10.989010989010987
  0
LINE
  8
0
 62
50
  6
CONTINUOUS
 10
-0.34340659340659335
 20
-4.1208791208791204
 11
-0.34340659340658847
 21
-10.989010989010987
  0
LINE
  8
0
 62
50
  6
CONTINUOUS
 10
4.8801012071435445e-015
 20
-10.645604395604401
 11
-0.34340659340658847
 21
-10.645604395604401
  0
LINE
  8
0
 62
50
  6
CONTINUOUS
 10
-0.34340659340659335
 20
-4.4642857142857135
 11
0
 21
-4.4642857142857135
  0
CIRCLE
  8
0
 62
50
  6
CONTINUOUS
 10
-2.4038461538461546
 20
-4.9450549450549426
 40
0.29189560439560097
  0
ARC
  8
0
 62
50
  6
CONTINUOUS
 10
-2.4038461538461524
 20
-6.3461538461538458
 40
0.71428571428571364
 50
90
 51
180
  0
ARC
  8
0
 62
50
  6
CONTINUOUS
 10
-2.4038461538461506
 20
-8.7637362637362646
 40
0.71428571428571419
 50
180
 51
0
  0
ARC
  8
0
 62
50
  6
CONTINUOUS
 10
-2.4038461538461524
 20
-6.3461538461538476
 40
0.71428571428571486
 50
0
 51
90
  0
CIRCLE
  8
0
 62
50
  6
CONTINUOUS
 10
-2.4038461538461506
 20
-10.164835164835164
 40
0.29189560439560192
  0
LINE
  8
0
 62
5
  6
DASHDOT
 10
-2.7541208791208756
 20
-4.9450549450549426
 11
-2.0535714285714333
 21
-4.9450549450549426
  0
LINE
  8
0
 62
5
  6
DASHDOT
 10
-2.7541208791208729
 20
-10.164835164835164
 11
-2.0535714285714284
 21
-10.164835164835164
  0
LINE
  8
0
 62
5
  6
DASHDOT
 10
-2.4038461538461506
 20
-10.515109890109887
 11
-2.4038461538461506
 21
-4.5947802197802217
  0
LINE
  8
0
 62
5
  6
DASHDOT
 10
-4.3956043956043906
 20
-7.5549450549450574
 11
0.27472527472527469
 21
-7.5549450549450574
  0
ENDBLK
  0
BLOCK
  8
0
 62
5
  6
DASHDOT
  2
3_92_TYPE_100
 70
0
 10
0
 20
0
  0
LINE
  8
0
 62
50
  6
CONTINUOUS
 10
-4.1208791208791196
 20
0
 11
-4.1208791208791196
 21
0.34340659340659335
  0
LINE
  8
0
 62
50
  6
CONTINUOUS
 10
-0.34340659340659241
 20
13.736263736263735
 11
9.7602024142870893e-016
 21
13.736263736263735
  0
LINE
  8
0
 62
50
  6
CONTINUOUS
 10
-4.1208791208791196
 20
0.34340659340659335
 11
-0.6868131868131867
 21
0.34340659340658947
  0
LINE
  8
0
 62
50
  6
CONTINUOUS
 10
-0.34340659340659241
 20
13.392857142857149
 11
9.7602024142870893e-016
 21
13.392857142857149
  0
LINE
  8
0
 62
50
  6
CONTINUOUS
 10
-4.1208791208791196
 20
0
 11
-0.6868131868131867
 21
-3.9040809657148357e-015
  0
LINE
  8
0
 62
50
  6
CONTINUOUS
 10
-3.7774725274725269
 20
0
 11
-3.7774725274725269
 21
0.34340659340659335
  0
ARC
  8
0
 62
50
  6
CONTINUOUS
 10
-0.68681318681318571
 20
0.6868131868131867
 40
0.34340659340659335
 50
270
 51
359.99999999999937
  0
ARC
  8
0
 62
50
  6
CONTINUOUS
 10
-0.68681318681318482
 20
0.6868131868131867
 40
0.6868131868131867
 50
270
 51
359.99999999999966
  0
LINE
  8
0
 62
5
  6
DASHDOT
 10
-2.4038461538461511
 20
-0.27472527472527469
 11
-2.4038461538461511
 21
0.61813186813186805
  0
LINE
  8
0
 62
50
  6
CONTINUOUS
 10
-0.34340659340659335
 20
0.6868131868131867
 11
-0.34340659340659335
 21
13.736263736263735
  0
LINE
  8
0
 62
50
  6
CONTINUOUS
 10
0
 20
0.6868131868131867
 11
0
 21
13.736263736263735
  0
LINE
  8
0
 62
5
  6
DASHDOT
 10
-0.61813186813186805
 20
9.615384615384615
 11
0.27472527472527469
 21
9.615384615384615
  0
ENDBLK
  0
BLOCK
  8
0
 62
50
  6
CONTINUOUS
  2
FIXATIONF05
 70
0
 10
0
 20
0
  0
INSERT
  8
0
 62
5
  6
DASHDOT
  2
TELL_1
 10
7.5549450549450539
 20
0
 41
1.0
 42
1.0
 50
0.0
  0
INSERT
  8
0
 62
5
  6
DASHDOT
  2
TELL_2
 10
0
 20
-7.5549450549450539
 41
1.0
 42
1.0
 50
0.0
  0
INSERT
  8
0
 62
5
  6
DASHDOT
  2
3_92_TYPE_100
 10
0
 20
0
 41
1.0
 42
1.0
 50
0.0
  0
ENDBLK
  0
ENDSEC
  0
SECTION
  2
ENTITIES
  0
INSERT
  8
0
 62
50
  6
CONTINUOUS
  2
FIXATIONF05
 10
0
 20
0
 41
1.0
 42
1.0
 50
0.0
  0
ENDSEC
  0
EOF
