  0
SECTION
  2
HEADER
  9
$ACADVER
  1
AC1009
  9
$EXTMIN
 10
-7.1428571428571432
 20
-16.071428571428573
  9
$EXTMAX
 10
17.857142857142858
 20
0.5357142857142857
  9
$TEXTSTYLE
  7
STANDARD
  9
$DIMLFAC
 40
1
  9
$REGENMODE
 70
1
  9
$DRAGMODE
 70
2
  9
$DIMASO
 70
1
  9
$LTSCALE
 40
1.0000000000
  0
ENDSEC
  0
SECTION
  2
TABLES
  0
TABLE
  2
LTYPE
 70
3
  0
LTYPE
  2
CONTINUOUS
 70
64
  3
CONTINUOUS
 72
65
 73
0
 40
0.0000000000
  0
LTYPE
  2
HIDDEN
 70
64
  3
HIDDEN
 72
65
 73
2
 40
0.5000000000
 49
0.2500000000
 49
-0.2500000000
  0
LTYPE
  2
DASHDOT
 70
64
  3
DASHDOT
 72
65
 73
4
 40
1.0000000000
 49
0.5000000000
 49
-0.2500000000
 49
0.0000000000
 49
-0.2500000000
  0
ENDTAB
  0
TABLE
  2
LAYER
 70
2
  0
LAYER
  2
0
 70
0
 62
2
  6
CONTINUOUS
  0
LAYER
  2
249
 70
0
 62
2
  6
CONTINUOUS
  0
ENDTAB
  0
TABLE
  2
STYLE
 70
0
  0
STYLE
  2
Standard
 70
0
 40
0
 41
1
 50
0
 71
0
 42
2.5
  3
txt
  4

  0
ENDTAB
  0
ENDSEC
  0
SECTION
  2
BLOCKS
  0
BLOCK
  8
0
 62
5
  6
DASHDOT
  2
TELL_1
 70
0
 10
15.178571428571429
 20
0
  0
LINE
  8
0
 62
50
  6
CONTINUOUS
 10
12.5
 20
-5.3571428571428577
 11
12.5
 21
-1.0714285714285714
  0
LINE
  8
0
 62
50
  6
CONTINUOUS
 10
13.571428571428571
 20
0
 11
16.785714285714285
 21
0
  0
LINE
  8
0
 62
50
  6
CONTINUOUS
 10
17.857142857142858
 20
-1.0714285714285714
 11
17.857142857142858
 21
-5.3571428571428577
  0
LINE
  8
0
 62
50
  6
CONTINUOUS
 10
17.857142857142858
 20
-5.3571428571428577
 11
17.321428571428573
 21
-5.3571428571428577
  0
LINE
  8
0
 62
50
  6
CONTINUOUS
 10
17.321428571428573
 20
-5.3571428571428577
 11
17.321428571428573
 21
-1.0714285714285714
  0
LINE
  8
0
 62
50
  6
CONTINUOUS
 10
16.785714285714285
 20
-0.5357142857142857
 11
13.571428571428571
 21
-0.5357142857142857
  0
LINE
  8
0
 62
50
  6
CONTINUOUS
 10
13.035714285714286
 20
-1.0714285714285714
 11
13.035714285714286
 21
-5.3571428571428577
  0
LINE
  8
0
 62
50
  6
CONTINUOUS
 10
13.035714285714286
 20
-5.3571428571428577
 11
12.5
 21
-5.3571428571428577
  0
ARC
  8
0
 62
50
  6
CONTINUOUS
 10
13.571428571428571
 20
-1.0714285714285714
 40
0.5357142857142857
 50
90
 51
180
  0
ARC
  8
0
 62
50
  6
CONTINUOUS
 10
16.785714285714285
 20
-1.0714285714285714
 40
0.5357142857142857
 50
0
 51
90
  0
ARC
  8
0
 62
50
  6
CONTINUOUS
 10
13.571428571428571
 20
-1.0714285714285714
 40
1.0714285714285714
 50
90
 51
180
  0
ARC
  8
0
 62
50
  6
CONTINUOUS
 10
16.785714285714285
 20
-1.0714285714285714
 40
1.0714285714285714
 50
0
 51
90
  0
LINE
  8
0
 62
5
  6
DASHDOT
 10
15.178571428571429
 20
-1.0714285714285714
 11
15.178571428571429
 21
0.5357142857142857
  0
ENDBLK
  0
BLOCK
  8
0
 62
5
  6
DASHDOT
  2
3_80_C_3_85_-
 70
0
 10
0
 20
0
  0
POLYLINE
  8
0
 62
50
  6
CONTINUOUS
 66
1
 70
1
  0
VERTEX
  8
0
 62
50
  6
CONTINUOUS
 10
-7.1428571428571432
 20
-5.3571428571428577
  0
VERTEX
  8
0
 62
50
  6
CONTINUOUS
 10
7.1428571428571432
 20
-5.3571428571428577
  0
VERTEX
  8
0
 62
50
  6
CONTINUOUS
 10
7.1428571428571432
 20
0
  0
VERTEX
  8
0
 62
50
  6
CONTINUOUS
 10
-7.1428571428571432
 20
0
  0
SEQEND
  0
LINE
  8
0
 62
140
  6
HIDDEN
 10
-7.1428571428571432
 20
-0.5357142857142857
 11
7.1428571428571432
 21
-0.5357142857142857
  0
LINE
  8
0
 62
5
  6
CONTINUOUS
 10
-6.9642857142857144
 20
-1.0714285714285714
 11
6.9642857142857144
 21
-1.0714285714285714
  0
LINE
  8
0
 62
5
  6
DASHDOT
 10
-4.7321428571428577
 20
-1.6071428571428572
 11
-4.7321428571428577
 21
0.5357142857142857
  0
LINE
  8
0
 62
5
  6
DASHDOT
 10
4.7321428571428577
 20
-1.6071428571428572
 11
4.7321428571428577
 21
0.5357142857142857
  0
ENDBLK
  0
BLOCK
  8
249
 62
5
  6
DASHDOT
  2
TELL_3
 70
0
 10
-4.7321428571428577
 20
-13.392857142857142
  0
CIRCLE
  8
249
 62
50
  6
CONTINUOUS
 10
-4.7321428571428577
 20
-13.392857142857142
 40
0.57732142857142865
  0
ARC
  8
249
 62
5
  6
CONTINUOUS
 10
-4.7321428571428577
 20
-13.392857142857142
 40
0.7142857142857143
 50
175.00000000000003
 51
90
  0
LINE
  8
249
 62
5
  6
DASHDOT
 10
-4.7321428571428577
 20
-12.321428571428571
 11
-4.7321428571428577
 21
-14.464285714285715
  0
LINE
  8
249
 62
5
  6
DASHDOT
 10
-5.8035714285714288
 20
-13.392857142857142
 11
-3.6607142857142856
 21
-13.392857142857142
  0
ENDBLK
  0
BLOCK
  8
0
 62
5
  6
DASHDOT
  2
TELL_4
 70
0
 10
4.7321428571428577
 20
-13.392857142857142
  0
CIRCLE
  8
0
 62
50
  6
CONTINUOUS
 10
4.7321428571428577
 20
-13.392857142857142
 40
0.57732142857142865
  0
ARC
  8
0
 62
5
  6
CONTINUOUS
 10
4.7321428571428577
 20
-13.392857142857142
 40
0.7142857142857143
 50
175.00000000000003
 51
90
  0
LINE
  8
0
 62
5
  6
DASHDOT
 10
4.7321428571428577
 20
-12.321428571428571
 11
4.7321428571428577
 21
-14.464285714285715
  0
LINE
  8
0
 62
5
  6
DASHDOT
 10
3.6607142857142856
 20
-13.392857142857142
 11
5.8035714285714288
 21
-13.392857142857142
  0
ENDBLK
  0
BLOCK
  8
0
 62
50
  6
CONTINUOUS
  2
TELL_2
 70
0
 10
1.6377374710608744e-089
 20
-13.392857142857142
  0
POLYLINE
  8
0
 62
50
  6
CONTINUOUS
 66
1
 70
1
  0
VERTEX
  8
0
 62
50
  6
CONTINUOUS
 10
-7.1428571428571432
 20
-16.071428571428573
  0
VERTEX
  8
0
 62
50
  6
CONTINUOUS
 10
7.1428571428571432
 20
-16.071428571428573
  0
VERTEX
  8
0
 62
50
  6
CONTINUOUS
 10
7.1428571428571432
 20
-10.714285714285715
  0
VERTEX
  8
0
 62
50
  6
CONTINUOUS
 10
-7.1428571428571432
 20
-10.714285714285715
  0
SEQEND
  0
LINE
  8
0
 62
5
  6
CONTINUOUS
 10
-6.9642857142857144
 20
-15
 11
6.9642857142857144
 21
-15
  0
LINE
  8
0
 62
5
  6
CONTINUOUS
 10
-6.9642857142857144
 20
-11.785714285714286
 11
6.9642857142857144
 21
-11.785714285714286
  0
LINE
  8
0
 62
140
  6
HIDDEN
 10
-7.1428571428571432
 20
-15.535714285714286
 11
7.1428571428571432
 21
-15.535714285714286
  0
LINE
  8
0
 62
140
  6
HIDDEN
 10
-7.1428571428571432
 20
-11.25
 11
7.1428571428571432
 21
-11.25
  0
INSERT
  8
249
 62
5
  6
DASHDOT
  2
TELL_3
 10
-4.7321428571428577
 20
-13.392857142857142
 41
1.0
 42
1.0
 50
0.0
  0
INSERT
  8
0
 62
5
  6
DASHDOT
  2
TELL_4
 10
4.7321428571428577
 20
-13.392857142857142
 41
1.0
 42
1.0
 50
0.0
  0
ENDBLK
  0
ENDSEC
  0
SECTION
  2
ENTITIES
  0
INSERT
  8
0
 62
5
  6
DASHDOT
  2
TELL_1
 10
15.178571428571429
 20
0
 41
1.0
 42
1.0
 50
0.0
  0
INSERT
  8
0
 62
5
  6
DASHDOT
  2
3_80_C_3_85_-
 10
0
 20
0
 41
1.0
 42
1.0
 50
0.0
  0
INSERT
  8
0
 62
50
  6
CONTINUOUS
  2
TELL_2
 10
1.6377374710608744e-089
 20
-13.392857142857142
 41
1.0
 42
1.0
 50
0.0
  0
ENDSEC
  0
EOF
