  0
SECTION
  2
HEADER
  9
$ACADVER
  1
AC1009
  9
$EXTMIN
 10
-7.4074074074074066
 20
-11.666666666666666
  9
$EXTMAX
 10
17.592592592592592
 20
0.37037037037037035
  9
$TEXTSTYLE
  7
STANDARD
  9
$DIMLFAC
 40
1
  9
$REGENMODE
 70
1
  9
$DRAGMODE
 70
2
  9
$DIMASO
 70
1
  9
$LTSCALE
 40
1.0000000000
  0
ENDSEC
  0
SECTION
  2
TABLES
  0
TABLE
  2
LTYPE
 70
2
  0
LTYPE
  2
CONTINUOUS
 70
64
  3
CONTINUOUS
 72
65
 73
0
 40
0.0000000000
  0
LTYPE
  2
DASHDOT
 70
64
  3
DASHDOT
 72
65
 73
4
 40
1.0000000000
 49
0.5000000000
 49
-0.2500000000
 49
0.0000000000
 49
-0.2500000000
  0
ENDTAB
  0
TABLE
  2
LAYER
 70
2
  0
LAYER
  2
0
 70
0
 62
2
  6
CONTINUOUS
  0
LAYER
  2
249
 70
0
 62
2
  6
CONTINUOUS
  0
ENDTAB
  0
TABLE
  2
STYLE
 70
0
  0
STYLE
  2
Standard
 70
0
 40
0
 41
1
 50
0
 71
0
 42
2.5
  3
txt
  4

  0
ENDTAB
  0
ENDSEC
  0
SECTION
  2
BLOCKS
  0
BLOCK
  8
0
 62
5
  6
DASHDOT
  2
3_80_CK_3_80_-
 70
0
 10
0
 20
0
  0
POLYLINE
  8
0
 62
50
  6
CONTINUOUS
 66
1
 70
1
  0
VERTEX
  8
0
 62
50
  6
CONTINUOUS
 10
-7.4074074074074066
 20
-1.4814814814814814
  0
VERTEX
  8
0
 62
50
  6
CONTINUOUS
 10
7.4074074074074066
 20
-1.4814814814814814
  0
VERTEX
  8
0
 62
50
  6
CONTINUOUS
 10
7.4074074074074066
 20
0
  0
VERTEX
  8
0
 62
50
  6
CONTINUOUS
 10
-7.4074074074074066
 20
0
  0
SEQEND
  0
LINE
  8
0
 62
5
  6
DASHDOT
 10
-4.9074074074074074
 20
-1.8518518518518516
 11
-4.9074074074074074
 21
0.37037037037037035
  0
LINE
  8
0
 62
5
  6
DASHDOT
 10
4.9074074074074074
 20
-1.8518518518518516
 11
4.9074074074074074
 21
0.37037037037037035
  0
ENDBLK
  0
BLOCK
  8
249
 62
5
  6
DASHDOT
  2
TELL_2
 70
0
 10
-4.9074074074074074
 20
-9.3518518518518512
  0
CIRCLE
  8
249
 62
50
  6
CONTINUOUS
 10
-4.9074074074074074
 20
-9.3518518518518512
 40
0.59870370370370374
  0
ARC
  8
249
 62
5
  6
CONTINUOUS
 10
-4.9074074074074074
 20
-9.3518518518518512
 40
0.7407407407407407
 50
175.00000000000003
 51
90
  0
LINE
  8
249
 62
5
  6
DASHDOT
 10
-4.9074074074074074
 20
-8.2407407407407405
 11
-4.9074074074074074
 21
-10.462962962962962
  0
LINE
  8
249
 62
5
  6
DASHDOT
 10
-6.0185185185185182
 20
-9.3518518518518512
 11
-3.7962962962962963
 21
-9.3518518518518512
  0
ENDBLK
  0
BLOCK
  8
0
 62
5
  6
DASHDOT
  2
TELL_3
 70
0
 10
4.9074074074074074
 20
-9.3518518518518512
  0
CIRCLE
  8
0
 62
50
  6
CONTINUOUS
 10
4.9074074074074074
 20
-9.3518518518518512
 40
0.59870370370370374
  0
ARC
  8
0
 62
5
  6
CONTINUOUS
 10
4.9074074074074074
 20
-9.3518518518518512
 40
0.7407407407407407
 50
175.00000000000003
 51
90
  0
LINE
  8
0
 62
5
  6
DASHDOT
 10
4.9074074074074074
 20
-8.2407407407407405
 11
4.9074074074074074
 21
-10.462962962962962
  0
LINE
  8
0
 62
5
  6
DASHDOT
 10
3.7962962962962963
 20
-9.3518518518518512
 11
6.0185185185185182
 21
-9.3518518518518512
  0
ENDBLK
  0
BLOCK
  8
0
 62
50
  6
CONTINUOUS
  2
TELL_1
 70
0
 10
2.6848148148148147e-089
 20
-9.3518518518518512
  0
POLYLINE
  8
0
 62
50
  6
CONTINUOUS
 66
1
 70
1
  0
VERTEX
  8
0
 62
50
  6
CONTINUOUS
 10
-7.4074074074074066
 20
-11.666666666666666
  0
VERTEX
  8
0
 62
50
  6
CONTINUOUS
 10
7.4074074074074066
 20
-11.666666666666666
  0
VERTEX
  8
0
 62
50
  6
CONTINUOUS
 10
7.4074074074074066
 20
-7.0370370370370363
  0
VERTEX
  8
0
 62
50
  6
CONTINUOUS
 10
-7.4074074074074066
 20
-7.0370370370370363
  0
SEQEND
  0
INSERT
  8
249
 62
5
  6
DASHDOT
  2
TELL_2
 10
-4.9074074074074074
 20
-9.3518518518518512
 41
1.0
 42
1.0
 50
0.0
  0
INSERT
  8
0
 62
5
  6
DASHDOT
  2
TELL_3
 10
4.9074074074074074
 20
-9.3518518518518512
 41
1.0
 42
1.0
 50
0.0
  0
ENDBLK
  0
BLOCK
  8
0
 62
5
  6
DASHDOT
  2
TELL_4
 70
0
 10
15.27777777777778
 20
0
  0
POLYLINE
  8
0
 62
50
  6
CONTINUOUS
 66
1
 70
1
  0
VERTEX
  8
0
 62
50
  6
CONTINUOUS
 10
12.962962962962962
 20
-1.4814814814814814
  0
VERTEX
  8
0
 62
50
  6
CONTINUOUS
 10
17.592592592592592
 20
-1.4814814814814814
  0
VERTEX
  8
0
 62
50
  6
CONTINUOUS
 10
17.592592592592592
 20
0
  0
VERTEX
  8
0
 62
50
  6
CONTINUOUS
 10
12.962962962962962
 20
0
  0
SEQEND
  0
LINE
  8
0
 62
5
  6
DASHDOT
 10
15.27777777777778
 20
-1.8518518518518516
 11
15.27777777777778
 21
0.37037037037037035
  0
ENDBLK
  0
ENDSEC
  0
SECTION
  2
ENTITIES
  0
INSERT
  8
0
 62
5
  6
DASHDOT
  2
3_80_CK_3_80_-
 10
0
 20
0
 41
1.0
 42
1.0
 50
0.0
  0
INSERT
  8
0
 62
50
  6
CONTINUOUS
  2
TELL_1
 10
2.6848148148148147e-089
 20
-9.3518518518518512
 41
1.0
 42
1.0
 50
0.0
  0
INSERT
  8
0
 62
5
  6
DASHDOT
  2
TELL_4
 10
15.27777777777778
 20
0
 41
1.0
 42
1.0
 50
0.0
  0
ENDSEC
  0
EOF
