  0
SECTION
  2
HEADER
  9
$ACADVER
  1
AC1009
  9
$EXTMIN
 10
-12.5
 20
-1.4862804878053719
  9
$EXTMAX
 10
12.5
 20
11.128048780487804
  9
$TEXTSTYLE
  7
STANDARD
  9
$DIMLFAC
 40
1
  9
$REGENMODE
 70
1
  9
$DRAGMODE
 70
2
  9
$DIMASO
 70
1
  9
$LTSCALE
 40
1.0000000000
  0
ENDSEC
  0
SECTION
  2
TABLES
  0
TABLE
  2
LTYPE
 70
3
  0
LTYPE
  2
CONTINUOUS
 70
64
  3
CONTINUOUS
 72
65
 73
0
 40
0.0000000000
  0
LTYPE
  2
HIDDEN
 70
64
  3
HIDDEN
 72
65
 73
2
 40
0.5000000000
 49
0.2500000000
 49
-0.2500000000
  0
LTYPE
  2
DASHDOT
 70
64
  3
DASHDOT
 72
65
 73
4
 40
1.0000000000
 49
0.5000000000
 49
-0.2500000000
 49
0.0000000000
 49
-0.2500000000
  0
ENDTAB
  0
TABLE
  2
LAYER
 70
1
  0
LAYER
  2
0
 70
0
 62
2
  6
CONTINUOUS
  0
ENDTAB
  0
TABLE
  2
STYLE
 70
0
  0
STYLE
  2
Standard
 70
0
 40
0
 41
1
 50
0
 71
0
 42
2.5
  3
txt
  4

  0
ENDTAB
  0
ENDSEC
  0
SECTION
  2
BLOCKS
  0
BLOCK
  8
0
 62
5
  6
CONTINUOUS
  2
TELL_1
 70
0
 10
0
 20
0
  0
LINE
  8
0
 62
50
  6
CONTINUOUS
 10
2.8582317073170773
 20
-1.4862804878048781
 11
-2.8582317073170689
 21
-1.4862804878048781
  0
LINE
  8
0
 62
50
  6
CONTINUOUS
 10
-2.8582317073170689
 20
-1.4862804878048781
 11
-2.8582317073170689
 21
1.4862804878048781
  0
LINE
  8
0
 62
50
  6
CONTINUOUS
 10
-2.8582317073170689
 20
1.4862804878048781
 11
2.8582317073170773
 21
1.4862804878048781
  0
LINE
  8
0
 62
50
  6
CONTINUOUS
 10
2.8582317073170773
 20
-1.4862804878048781
 11
2.8582317073170773
 21
1.4862804878048781
  0
LINE
  8
0
 62
50
  6
CONTINUOUS
 10
-1.4672256097543861
 20
-1.3338414634141402
 11
1.4672256097578089
 21
-1.3338414634141402
  0
LINE
  8
0
 62
50
  6
CONTINUOUS
 10
-1.4672256097543861
 20
1.3338414634151281
 11
1.4672256097578089
 21
1.3338414634151281
  0
LINE
  8
0
 62
50
  6
CONTINUOUS
 10
1.5568270201665382
 20
0.41021082402821207
 11
1.5905513710937433
 21
0.44393517495541729
  0
LINE
  8
0
 62
50
  6
CONTINUOUS
 10
1.5905513710937433
 20
0.44393517495541729
 11
1.6122037372401148
 21
0.48643033622333404
  0
LINE
  8
0
 62
50
  6
CONTINUOUS
 10
1.6122037372401148
 20
0.48643033622333404
 11
1.6196646341463456
 21
0.53353658536585369
  0
LINE
  8
0
 62
50
  6
CONTINUOUS
 10
1.5434451219512237
 20
0.53353658536585369
 11
1.5376432570511667
 21
0.5043686408258331
  0
LINE
  8
0
 62
50
  6
CONTINUOUS
 10
1.5376432570511667
 20
0.5043686408258331
 11
1.5211209436880038
 21
0.4796412514339517
  0
LINE
  8
0
 62
50
  6
CONTINUOUS
 10
1.5211209436880038
 20
0.4796412514339517
 11
1.4963935542961224
 21
0.4631189380707888
  0
LINE
  8
0
 62
50
  6
CONTINUOUS
 10
1.4963935542961224
 20
0.4631189380707888
 11
1.4672256097561018
 21
0.45731707317073167
  0
LINE
  8
0
 62
50
  6
CONTINUOUS
 10
1.4672256097561018
 20
0.38109756097560976
 11
1.5143318588986214
 21
0.38855845788184068
  0
LINE
  8
0
 62
50
  6
CONTINUOUS
 10
1.5143318588986214
 20
0.38855845788184068
 11
1.5568270201665382
 21
0.41021082402821207
  0
LINE
  8
0
 62
50
  6
CONTINUOUS
 10
1.6196646341480527
 20
1.1814024390248841
 11
1.6196646341463456
 21
0.53353658536585369
  0
LINE
  8
0
 62
50
  6
CONTINUOUS
 10
1.4672256097561018
 20
0.38109756097560976
 11
1.0480182926829311
 21
0.38109756097560976
  0
LINE
  8
0
 62
50
  6
CONTINUOUS
 10
1.0480182926829311
 20
0.38109756097560976
 11
1.0480182926829311
 21
0.45731707317073167
  0
LINE
  8
0
 62
50
  6
CONTINUOUS
 10
1.0480182926829311
 20
0.45731707317073167
 11
1.4672256097561018
 21
0.45731707317073167
  0
LINE
  8
0
 62
50
  6
CONTINUOUS
 10
1.5434451219512237
 20
0.53353658536585369
 11
1.5434451219529308
 21
1.1814024390248841
  0
LINE
  8
0
 62
50
  6
CONTINUOUS
 10
1.4672256097578089
 20
1.257621951220006
 11
-1.4672256097543861
 21
1.257621951220006
  0
LINE
  8
0
 62
50
  6
CONTINUOUS
 10
-1.543445121949508
 20
1.1814024390248841
 11
-1.5434451219512151
 21
-1.1814024390238964
  0
LINE
  8
0
 62
50
  6
CONTINUOUS
 10
-1.4672256097543861
 20
-1.2576219512190183
 11
1.4672256097578089
 21
-1.2576219512190183
  0
LINE
  8
0
 62
50
  6
CONTINUOUS
 10
1.5434451219529308
 20
-1.1814024390238964
 11
1.5434451219529308
 21
-0.53353658536535975
  0
LINE
  8
0
 62
50
  6
CONTINUOUS
 10
1.4672256097578089
 20
-0.45731707317023779
 11
1.0480182926829311
 21
-0.45731707317073167
  0
LINE
  8
0
 62
50
  6
CONTINUOUS
 10
1.0480182926829311
 20
-0.45731707317073167
 11
1.0480182926829311
 21
-0.38109756097560976
  0
LINE
  8
0
 62
50
  6
CONTINUOUS
 10
1.0480182926829311
 20
-0.38109756097560976
 11
1.4672256097578089
 21
-0.38109756097511582
  0
LINE
  8
0
 62
50
  6
CONTINUOUS
 10
1.6196646341480527
 20
-0.53353658536535975
 11
1.6196646341463456
 21
-1.1814024390238964
  0
LINE
  8
0
 62
50
  6
CONTINUOUS
 10
-1.6196646341446301
 20
-1.1814024390238964
 11
-1.619664634146337
 21
1.1814024390248841
  0
CIRCLE
  8
0
 62
50
  6
CONTINUOUS
 10
-2.2865853658536541
 20
0
 40
0.2762957317073142
  0
CIRCLE
  8
0
 62
50
  6
CONTINUOUS
 10
-4.3325776570737815e-015
 20
0
 40
0.12385670731706783
  0
CIRCLE
  8
0
 62
50
  6
CONTINUOUS
 10
2.286585365853663
 20
0
 40
0.27629573170731903
  0
ARC
  8
0
 62
50
  6
CONTINUOUS
 10
-1.4672256097560932
 20
1.1814024390243902
 40
0.1524390243902439
 50
90
 51
179.99999999981435
  0
ARC
  8
0
 62
50
  6
CONTINUOUS
 10
-1.4672256097560932
 20
-1.1814024390243902
 40
0.1524390243902439
 50
179.99999999981435
 51
270
  0
ARC
  8
0
 62
50
  6
CONTINUOUS
 10
1.4672256097561018
 20
-1.1814024390238964
 40
0.1524390243902439
 50
270
 51
0
  0
ARC
  8
0
 62
50
  6
CONTINUOUS
 10
1.4672256097561018
 20
1.1814024390248841
 40
0.1524390243902439
 50
0
 51
90
  0
ARC
  8
0
 62
50
  6
CONTINUOUS
 10
1.4672256097561018
 20
-0.53353658536585369
 40
0.1524390243902439
 50
1.8564261564558369e-010
 51
90
  0
ARC
  8
0
 62
50
  6
CONTINUOUS
 10
-1.4672256097560932
 20
-1.1814024390243902
 40
0.07621951219512195
 50
179.99999999962873
 51
270
  0
ARC
  8
0
 62
50
  6
CONTINUOUS
 10
1.4672256097561018
 20
-1.1814024390238964
 40
0.07621951219512195
 50
270
 51
0
  0
ARC
  8
0
 62
50
  6
CONTINUOUS
 10
1.4672256097578089
 20
-0.53353658536585369
 40
0.07621951219512195
 50
3.712852312953251e-010
 51
90
  0
ARC
  8
0
 62
50
  6
CONTINUOUS
 10
1.4672256097561018
 20
1.1814024390243902
 40
0.07621951219512195
 50
3.7128523128700966e-010
 51
90
  0
ARC
  8
0
 62
50
  6
CONTINUOUS
 10
-1.4672256097560932
 20
1.1814024390248841
 40
0.07621951219512195
 50
90
 51
180
  0
LINE
  8
0
 62
5
  6
DASHDOT
 10
-2.6181402439024319
 20
0
 11
-1.9550304878048763
 21
0
  0
LINE
  8
0
 62
5
  6
DASHDOT
 10
-2.2865853658536541
 20
-0.33155487804877787
 11
-2.2865853658536541
 21
0.33155487804877787
  0
LINE
  8
0
 62
5
  6
DASHDOT
 10
1.9550304878048805
 20
0
 11
2.6181402439024448
 21
0
  0
LINE
  8
0
 62
5
  6
DASHDOT
 10
2.286585365853663
 20
-0.3315548780487822
 11
2.286585365853663
 21
0.3315548780487822
  0
LINE
  8
0
 62
5
  6
CONTINUOUS
 10
-2.8582317073170689
 20
-1.3338414634146341
 11
-1.4672256097543861
 21
-1.3338414634141402
  0
LINE
  8
0
 62
5
  6
CONTINUOUS
 10
1.4672256097578089
 20
-1.3338414634141402
 11
2.8582317073170773
 21
-1.3338414634146341
  0
LINE
  8
0
 62
5
  6
CONTINUOUS
 10
-2.8582317073170689
 20
1.3338414634146341
 11
-1.4672256097543861
 21
1.3338414634151281
  0
LINE
  8
0
 62
5
  6
CONTINUOUS
 10
1.4672256097578089
 20
1.3338414634151281
 11
2.8582317073170773
 21
1.3338414634146341
  0
ENDBLK
  0
BLOCK
  8
0
 62
5
  6
CONTINUOUS
  2
TELL_2
 70
0
 10
-4.8780487804878048
 20
0
  0
LINE
  8
0
 62
50
  6
CONTINUOUS
 10
-4.8780487804860932
 20
1.3338414634151281
 11
-4.8780487804860932
 21
-1.3338414634141402
  0
LINE
  8
0
 62
50
  6
CONTINUOUS
 10
-4.2301829268292641
 20
-1.371951219512195
 11
-4.2301829268292641
 21
-1.4862804878048781
  0
ARC
  8
0
 62
50
  6
CONTINUOUS
 10
-4.8399390243885323
 20
-1.3338414634146341
 40
0.038109756097560975
 50
179.99999999925743
 51
270
  0
ARC
  8
0
 62
50
  6
CONTINUOUS
 10
-4.8399390243885323
 20
1.3338414634146341
 40
0.1524390243902439
 50
90
 51
179.99999999981435
  0
LINE
  8
0
 62
5
  6
DASHDOT
 10
-5.1067073170731705
 20
0
 11
-4.7637195121951219
 21
0
  0
LINE
  8
0
 62
50
  6
CONTINUOUS
 10
-12.5
 20
-1.3338414634146341
 11
-12.5
 21
1.3338414634146341
  0
LINE
  8
0
 62
50
  6
CONTINUOUS
 10
-12.5
 20
1.3338414634146341
 11
-4.9923780487804876
 21
1.3338414634146341
  0
LINE
  8
0
 62
50
  6
CONTINUOUS
 10
-4.9923780487787761
 20
1.3338414634141402
 11
-4.9923780487787761
 21
-1.3338414634151281
  0
LINE
  8
0
 62
50
  6
CONTINUOUS
 10
-4.0015243902438984
 20
1.371951219512195
 11
-4.0015243902438984
 21
1.4862804878048781
  0
LINE
  8
0
 62
50
  6
CONTINUOUS
 10
-4.0015243902438984
 20
-1.4862804878048781
 11
-4.8399390243885323
 21
-1.4862804878053719
  0
LINE
  8
0
 62
50
  6
CONTINUOUS
 10
-4.0015243902438984
 20
-1.4862804878048781
 11
-4.0015243902438984
 21
-1.371951219512195
  0
LINE
  8
0
 62
50
  6
CONTINUOUS
 10
-4.0015243902438984
 20
-1.371951219512195
 11
-4.8399390243885323
 21
-1.3719512195126891
  0
LINE
  8
0
 62
50
  6
CONTINUOUS
 10
-4.2301829268292641
 20
1.371951219512195
 11
-4.2301829268292641
 21
1.4862804878048781
  0
LINE
  8
0
 62
50
  6
CONTINUOUS
 10
-4.0015243902438984
 20
1.4862804878048781
 11
-4.8399390243885323
 21
1.486280487804384
  0
ARC
  8
0
 62
50
  6
CONTINUOUS
 10
-4.8399390243885323
 20
1.3338414634146341
 40
0.038109756097560975
 50
90
 51
180.00000000074257
  0
ARC
  8
0
 62
50
  6
CONTINUOUS
 10
-4.8399390243885323
 20
-1.3338414634146341
 40
0.1524390243902439
 50
180.00000000018565
 51
270
  0
LINE
  8
0
 62
5
  6
DASHDOT
 10
-5.1067073170731705
 20
0
 11
-4.7637195121951219
 21
0
  0
LINE
  8
0
 62
50
  6
CONTINUOUS
 10
-12.5
 20
-1.3338414634146341
 11
-4.9923780487804876
 21
-1.3338414634146341
  0
LINE
  8
0
 62
50
  6
CONTINUOUS
 10
-12.5
 20
0.38109756097560976
 11
-4.9923780487804876
 21
0.38109756097560976
  0
LINE
  8
0
 62
50
  6
CONTINUOUS
 10
-12.5
 20
-0.38109756097560976
 11
-4.9923780487804876
 21
-0.38109756097560976
  0
LINE
  8
0
 62
5
  6
CONTINUOUS
 10
-12.5
 20
1.1814024390243902
 11
-4.9923780487804876
 21
1.1814024390243902
  0
LINE
  8
0
 62
5
  6
CONTINUOUS
 10
-12.5
 20
0.53353658536585369
 11
-4.9923780487804876
 21
0.53353658536585369
  0
LINE
  8
0
 62
5
  6
CONTINUOUS
 10
-12.5
 20
-0.53353658536585369
 11
-4.9923780487804876
 21
-0.53353658536585369
  0
LINE
  8
0
 62
5
  6
CONTINUOUS
 10
-12.5
 20
-1.1814024390243902
 11
-4.9923780487804876
 21
-1.1814024390243902
  0
LINE
  8
0
 62
50
  6
CONTINUOUS
 10
-4.8399390243902438
 20
1.371951219512195
 11
-4.0015243902439019
 21
1.371951219512195
  0
ENDBLK
  0
BLOCK
  8
0
 62
5
  6
CONTINUOUS
  2
TELL_3
 70
0
 10
0
 20
0
  0
LINE
  8
0
 62
50
  6
CONTINUOUS
 10
4.8780487804860932
 20
1.3338414634151281
 11
4.8780487804860932
 21
-1.3338414634141402
  0
LINE
  8
0
 62
50
  6
CONTINUOUS
 10
4.2301829268292641
 20
-1.371951219512195
 11
4.2301829268292641
 21
-1.4862804878048781
  0
ARC
  8
0
 62
50
  6
CONTINUOUS
 10
4.8399390243885323
 20
-1.3338414634146341
 40
0.038109756097560975
 50
270
 51
7.4260242399759591e-010
  0
ARC
  8
0
 62
50
  6
CONTINUOUS
 10
4.8399390243885323
 20
1.3338414634146341
 40
0.1524390243902439
 50
1.8565060599939898e-010
 51
90
  0
LINE
  8
0
 62
5
  6
DASHDOT
 10
5.1067073170731705
 20
0
 11
4.7637195121951219
 21
0
  0
LINE
  8
0
 62
50
  6
CONTINUOUS
 10
12.5
 20
-1.3338414634146341
 11
12.5
 21
1.3338414634146341
  0
LINE
  8
0
 62
50
  6
CONTINUOUS
 10
12.5
 20
1.3338414634146341
 11
4.9923780487804876
 21
1.3338414634146341
  0
LINE
  8
0
 62
50
  6
CONTINUOUS
 10
4.9923780487787761
 20
1.3338414634141402
 11
4.9923780487787761
 21
-1.3338414634151281
  0
LINE
  8
0
 62
50
  6
CONTINUOUS
 10
4.0015243902438984
 20
1.371951219512195
 11
4.0015243902438984
 21
1.4862804878048781
  0
LINE
  8
0
 62
50
  6
CONTINUOUS
 10
4.0015243902438984
 20
-1.4862804878048781
 11
4.8399390243885323
 21
-1.4862804878053719
  0
LINE
  8
0
 62
50
  6
CONTINUOUS
 10
4.0015243902438984
 20
-1.4862804878048781
 11
4.0015243902438984
 21
-1.371951219512195
  0
LINE
  8
0
 62
50
  6
CONTINUOUS
 10
4.0015243902438984
 20
-1.371951219512195
 11
4.8399390243885323
 21
-1.3719512195126891
  0
LINE
  8
0
 62
50
  6
CONTINUOUS
 10
4.2301829268292641
 20
1.371951219512195
 11
4.2301829268292641
 21
1.4862804878048781
  0
LINE
  8
0
 62
50
  6
CONTINUOUS
 10
4.0015243902438984
 20
1.4862804878048781
 11
4.8399390243885323
 21
1.486280487804384
  0
ARC
  8
0
 62
50
  6
CONTINUOUS
 10
4.8399390243885323
 20
1.3338414634146341
 40
0.038109756097560975
 50
359.9999999992574
 51
90
  0
ARC
  8
0
 62
50
  6
CONTINUOUS
 10
4.8399390243885323
 20
-1.3338414634146341
 40
0.1524390243902439
 50
270
 51
359.99999999981435
  0
LINE
  8
0
 62
5
  6
DASHDOT
 10
5.1067073170731705
 20
0
 11
4.7637195121951219
 21
0
  0
LINE
  8
0
 62
50
  6
CONTINUOUS
 10
12.5
 20
-1.3338414634146341
 11
4.9923780487804876
 21
-1.3338414634146341
  0
LINE
  8
0
 62
5
  6
CONTINUOUS
 10
12.5
 20
1.1814024390243902
 11
4.9923780487804876
 21
1.1814024390243902
  0
LINE
  8
0
 62
5
  6
CONTINUOUS
 10
12.5
 20
-1.1814024390243902
 11
4.9923780487804876
 21
-1.1814024390243902
  0
LINE
  8
0
 62
50
  6
CONTINUOUS
 10
4.8399390243902438
 20
1.371951219512195
 11
4.0015243902439019
 21
1.371951219512195
  0
ENDBLK
  0
BLOCK
  8
0
 62
5
  6
CONTINUOUS
  2
3_70_CSE__L_200
 70
0
 10
0
 20
3.5060975609756095
  0
LINE
  8
0
 62
50
  6
CONTINUOUS
 10
-2.8582317073170689
 20
3.6204268292682924
 11
2.8582317073170773
 21
3.6204268292682924
  0
LINE
  8
0
 62
50
  6
CONTINUOUS
 10
2.8582317073170773
 20
2.8582317073170733
 11
2.8582317073170773
 21
3.6204268292682924
  0
LINE
  8
0
 62
50
  6
CONTINUOUS
 10
-2.8582317073170689
 20
2.8582317073170733
 11
-2.8582317073170689
 21
3.6204268292682924
  0
LINE
  8
0
 62
5
  6
CONTINUOUS
 10
-2.8010670731707275
 20
3.4679878048780486
 11
2.8010670731707359
 21
3.4679878048780486
  0
LINE
  8
0
 62
50
  6
CONTINUOUS
 10
2.8582317073170773
 20
2.8582317073170733
 11
2.7262156396670223
 21
2.6295731707317072
  0
LINE
  8
0
 62
50
  6
CONTINUOUS
 10
2.7262156396670223
 20
2.6295731707317072
 11
-2.726215639667005
 21
2.6295731707317072
  0
LINE
  8
0
 62
50
  6
CONTINUOUS
 10
-2.726215639667005
 20
2.6295731707317072
 11
-2.8582317073170689
 21
2.8582317073170733
  0
LINE
  8
0
 62
5
  6
DASHDOT
 10
-2.2865853658536586
 20
3.3917682926829267
 11
-2.2865853658536586
 21
3.7347560975609757
  0
LINE
  8
0
 62
5
  6
DASHDOT
 10
2.2865853658536586
 20
3.3917682926829267
 11
2.2865853658536586
 21
3.7347560975609757
  0
LINE
  8
0
 62
50
  6
CONTINUOUS
 10
-1.6196646341463414
 20
3.6204268292682924
 11
-1.6196646341463414
 21
11.128048780487804
  0
LINE
  8
0
 62
50
  6
CONTINUOUS
 10
-1.6196646341463414
 20
11.128048780487804
 11
1.6196646341463414
 21
11.128048780487804
  0
LINE
  8
0
 62
50
  6
CONTINUOUS
 10
1.6196646341463414
 20
11.128048780487804
 11
1.6196646341463414
 21
3.6204268292682924
  0
LINE
  8
0
 62
140
  6
HIDDEN
 10
-1.5434451219512195
 20
3.6204268292682924
 11
-1.5434451219512195
 21
11.128048780487804
  0
LINE
  8
0
 62
140
  6
HIDDEN
 10
1.5434451219512195
 20
3.6204268292682924
 11
1.5434451219512195
 21
11.128048780487804
  0
LINE
  8
0
 62
140
  6
HIDDEN
 10
1.0480182926829269
 20
3.6204268292682924
 11
1.0480182926829269
 21
11.128048780487804
  0
LINE
  8
0
 62
5
  6
CONTINUOUS
 10
-1.4672256097560976
 20
3.6204268292682924
 11
-1.4672256097560976
 21
11.128048780487804
  0
LINE
  8
0
 62
5
  6
CONTINUOUS
 10
1.4672256097560976
 20
3.6204268292682924
 11
1.4672256097560976
 21
11.128048780487804
  0
ENDBLK
  0
BLOCK
  8
0
 62
50
  6
CONTINUOUS
  2
FIXATIONE05
 70
0
 10
0
 20
0
  0
INSERT
  8
0
 62
5
  6
CONTINUOUS
  2
TELL_1
 10
0
 20
0
 41
1.0
 42
1.0
 50
0.0
  0
INSERT
  8
0
 62
5
  6
CONTINUOUS
  2
TELL_2
 10
-4.8780487804878048
 20
0
 41
1.0
 42
1.0
 50
0.0
  0
INSERT
  8
0
 62
5
  6
CONTINUOUS
  2
TELL_3
 10
0
 20
0
 41
1.0
 42
1.0
 50
0.0
  0
INSERT
  8
0
 62
5
  6
CONTINUOUS
  2
3_70_CSE__L_200
 10
0
 20
3.5060975609756095
 41
1.0
 42
1.0
 50
0.0
  0
ENDBLK
  0
ENDSEC
  0
SECTION
  2
ENTITIES
  0
INSERT
  8
0
 62
50
  6
CONTINUOUS
  2
FIXATIONE05
 10
0
 20
0
 41
1.0
 42
1.0
 50
0.0
  0
ENDSEC
  0
EOF
