  0
SECTION
  2
HEADER
  9
$ACADVER
  1
AC1009
  9
$EXTMIN
 10
-12.5
 20
-1.4318181818181819
  9
$EXTMAX
 10
12.5
 20
10.522727272727273
  9
$TEXTSTYLE
  7
STANDARD
  9
$DIMLFAC
 40
1
  9
$REGENMODE
 70
1
  9
$DRAGMODE
 70
2
  9
$DIMASO
 70
1
  9
$LTSCALE
 40
1.0000000000
  0
ENDSEC
  0
SECTION
  2
TABLES
  0
TABLE
  2
LTYPE
 70
3
  0
LTYPE
  2
CONTINUOUS
 70
64
  3
CONTINUOUS
 72
65
 73
0
 40
0.0000000000
  0
LTYPE
  2
HIDDEN
 70
64
  3
HIDDEN
 72
65
 73
2
 40
0.5000000000
 49
0.2500000000
 49
-0.2500000000
  0
LTYPE
  2
DASHDOT
 70
64
  3
DASHDOT
 72
65
 73
4
 40
1.0000000000
 49
0.5000000000
 49
-0.2500000000
 49
0.0000000000
 49
-0.2500000000
  0
ENDTAB
  0
TABLE
  2
LAYER
 70
1
  0
LAYER
  2
0
 70
0
 62
2
  6
CONTINUOUS
  0
ENDTAB
  0
TABLE
  2
STYLE
 70
0
  0
STYLE
  2
Standard
 70
0
 40
0
 41
1
 50
0
 71
0
 42
2.5
  3
txt
  4

  0
ENDTAB
  0
ENDSEC
  0
SECTION
  2
BLOCKS
  0
BLOCK
  8
0
 62
5
  6
CONTINUOUS
  2
TELL_1
 70
0
 10
0
 20
0
  0
LINE
  8
0
 62
50
  6
CONTINUOUS
 10
-3.4090909090909092
 20
1.4318181818181819
 11
3.4090909090909092
 21
1.4318181818181819
  0
LINE
  8
0
 62
50
  6
CONTINUOUS
 10
3.4090909090909092
 20
-1.4318181818181819
 11
-3.4090909090909092
 21
-1.4318181818181819
  0
LINE
  8
0
 62
50
  6
CONTINUOUS
 10
3.4090909090909092
 20
-1.4318181818181819
 11
3.4090909090909092
 21
1.4318181818181819
  0
LINE
  8
0
 62
50
  6
CONTINUOUS
 10
-3.4090909090909092
 20
-1.4318181818181819
 11
-3.4090909090909092
 21
1.4318181818181819
  0
LINE
  8
0
 62
50
  6
CONTINUOUS
 10
-1.227272727273182
 20
1.2500000000006408
 11
1.2272727272722725
 21
1.2500000000006408
  0
LINE
  8
0
 62
50
  6
CONTINUOUS
 10
-1.227272727273182
 20
-1.2499999999993592
 11
1.2272727272722725
 21
-1.2499999999993592
  0
LINE
  8
0
 62
50
  6
CONTINUOUS
 10
1.4090909090904544
 20
1.0681818181824589
 11
1.4090909090909092
 21
0.61363636363700447
  0
LINE
  8
0
 62
50
  6
CONTINUOUS
 10
1.2272727272722725
 20
0.43181818181882259
 11
1.0454545454545454
 21
0.43181818181818182
  0
LINE
  8
0
 62
50
  6
CONTINUOUS
 10
1.0454545454545454
 20
0.43181818181818182
 11
1.0454545454545454
 21
0.52272727272727271
  0
LINE
  8
0
 62
50
  6
CONTINUOUS
 10
1.0454545454545454
 20
0.52272727272727271
 11
1.2272727272722725
 21
0.52272727272791353
  0
LINE
  8
0
 62
50
  6
CONTINUOUS
 10
1.3181818181813634
 20
0.61363636363700447
 11
1.3181818181818181
 21
1.0681818181824589
  0
LINE
  8
0
 62
50
  6
CONTINUOUS
 10
1.2272727272722725
 20
1.15909090909155
 11
-1.227272727273182
 21
1.1590909090909092
  0
LINE
  8
0
 62
50
  6
CONTINUOUS
 10
-1.3181818181822729
 20
1.0681818181824589
 11
-1.3181818181822729
 21
-1.0681818181811775
  0
LINE
  8
0
 62
50
  6
CONTINUOUS
 10
-1.227272727273182
 20
-1.1590909090902684
 11
1.2272727272722725
 21
-1.1590909090902684
  0
LINE
  8
0
 62
50
  6
CONTINUOUS
 10
1.3181818181813634
 20
-1.0681818181811775
 11
1.3181818181813634
 21
-0.61363636363572283
  0
LINE
  8
0
 62
50
  6
CONTINUOUS
 10
1.2272727272722725
 20
-0.522727272726632
 11
1.0454545454545454
 21
-0.52272727272727271
  0
LINE
  8
0
 62
50
  6
CONTINUOUS
 10
1.0454545454545454
 20
-0.52272727272727271
 11
1.0454545454545454
 21
-0.43181818181818182
  0
LINE
  8
0
 62
50
  6
CONTINUOUS
 10
1.0454545454545454
 20
-0.43181818181818182
 11
1.2272727272722725
 21
-0.43181818181754106
  0
LINE
  8
0
 62
50
  6
CONTINUOUS
 10
1.4090909090904544
 20
-0.61363636363572283
 11
1.4090909090904544
 21
-1.0681818181811775
  0
LINE
  8
0
 62
50
  6
CONTINUOUS
 10
-1.4090909090913639
 20
-1.0681818181811775
 11
-1.4090909090913639
 21
1.0681818181824589
  0
CIRCLE
  8
0
 62
50
  6
CONTINUOUS
 10
-2.7272727272726756
 20
1.0335167065601458e-014
 40
0.28409090909096057
  0
CIRCLE
  8
0
 62
50
  6
CONTINUOUS
 10
0
 20
-5.1675835328007288e-015
 40
0.13636363636363452
  0
CIRCLE
  8
0
 62
50
  6
CONTINUOUS
 10
2.7272727272727066
 20
-1.0335167065601458e-014
 40
0.28409090909088469
  0
LINE
  8
0
 62
5
  6
DASHDOT
 10
-3.0681818181818286
 20
1.0335167065601458e-014
 11
-2.3863636363635226
 21
1.0335167065601458e-014
  0
LINE
  8
0
 62
5
  6
DASHDOT
 10
-2.7272727272726756
 20
-0.34090909090914262
 11
-2.7272727272726756
 21
0.34090909090916327
  0
LINE
  8
0
 62
5
  6
DASHDOT
 10
2.3863636363636469
 20
-1.0335167065601458e-014
 11
3.0681818181817664
 21
-1.0335167065601458e-014
  0
LINE
  8
0
 62
5
  6
DASHDOT
 10
2.7272727272727066
 20
-0.34090909090907023
 11
2.7272727272727066
 21
0.34090909090904958
  0
ARC
  8
0
 62
50
  6
CONTINUOUS
 10
-1.2272727272727273
 20
1.0681818181818181
 40
0.090909090909090912
 50
90
 51
179.99999999959616
  0
ARC
  8
0
 62
50
  6
CONTINUOUS
 10
-1.2272727272731925
 20
-1.0681818181818181
 40
0.090909090909090912
 50
179.99999999959616
 51
270
  0
ARC
  8
0
 62
50
  6
CONTINUOUS
 10
1.2272727272727377
 20
-1.0681818181811775
 40
0.090909090909090912
 50
270
 51
0
  0
ARC
  8
0
 62
50
  6
CONTINUOUS
 10
1.2272727272727377
 20
1.0681818181818181
 40
0.090909090909090912
 50
4.0385411123557758e-010
 51
90
  0
ARC
  8
0
 62
50
  6
CONTINUOUS
 10
1.2272727272727377
 20
0.61363636363636365
 40
0.090909090909090912
 50
270
 51
4.0385411123557758e-010
  0
ARC
  8
0
 62
50
  6
CONTINUOUS
 10
1.2272727272722725
 20
-0.61363636363636365
 40
0.090909090909090912
 50
4.0385411123351149e-010
 51
90
  0
ARC
  8
0
 62
50
  6
CONTINUOUS
 10
1.2272727272727273
 20
-0.61363636363636365
 40
0.18181818181818182
 50
2.0192705561726079e-010
 51
90
  0
ARC
  8
0
 62
50
  6
CONTINUOUS
 10
1.2272727272727273
 20
0.61363636363636365
 40
0.18181818181818182
 50
270
 51
2.0192705561726079e-010
  0
ARC
  8
0
 62
50
  6
CONTINUOUS
 10
-1.2272727272727273
 20
-1.0681818181818181
 40
0.18181818181818182
 50
179.99999999979806
 51
270
  0
ARC
  8
0
 62
50
  6
CONTINUOUS
 10
-1.227272727273182
 20
1.0681818181818181
 40
0.18181818181818182
 50
90
 51
179.99999999979806
  0
ARC
  8
0
 62
50
  6
CONTINUOUS
 10
1.2272727272727273
 20
1.0681818181824589
 40
0.18181818181818182
 50
0
 51
90
  0
ARC
  8
0
 62
50
  6
CONTINUOUS
 10
1.2272727272722725
 20
-1.0681818181811775
 40
0.18181818181818182
 50
270
 51
0
  0
LINE
  8
0
 62
5
  6
CONTINUOUS
 10
-3.4090909090909092
 20
1.25
 11
-1.227272727273182
 21
1.2500000000006408
  0
LINE
  8
0
 62
5
  6
CONTINUOUS
 10
1.2272727272722725
 20
1.2500000000006408
 11
3.4090909090909092
 21
1.25
  0
LINE
  8
0
 62
5
  6
CONTINUOUS
 10
-3.4090909090909092
 20
-1.25
 11
-1.227272727273182
 21
-1.2499999999993592
  0
LINE
  8
0
 62
5
  6
CONTINUOUS
 10
1.2272727272722725
 20
-1.2499999999993592
 11
3.4090909090909092
 21
-1.25
  0
ENDBLK
  0
BLOCK
  8
0
 62
5
  6
CONTINUOUS
  2
TELL_2
 70
0
 10
-5.6818181818181817
 20
0
  0
LINE
  8
0
 62
50
  6
CONTINUOUS
 10
-4.7727272727272831
 20
-1.2954545454545454
 11
-4.7727272727272831
 21
-1.4318181818181819
  0
LINE
  8
0
 62
50
  6
CONTINUOUS
 10
-4.7727272727272831
 20
-1.4318181818181819
 11
-5.6363636363640914
 21
-1.4318181818175411
  0
LINE
  8
0
 62
50
  6
CONTINUOUS
 10
-4.7727272727272831
 20
1.4318181818181819
 11
-5.6363636363640914
 21
1.4318181818188227
  0
LINE
  8
0
 62
50
  6
CONTINUOUS
 10
-4.7727272727272831
 20
1.4318181818181819
 11
-4.7727272727272831
 21
1.2954545454545454
  0
LINE
  8
0
 62
50
  6
CONTINUOUS
 10
-4.7727272727272831
 20
1.2954545454545454
 11
-5.6363636363640914
 21
1.2954545454551862
  0
LINE
  8
0
 62
50
  6
CONTINUOUS
 10
-5.8181818181822731
 20
-1.2499999999993592
 11
-5.8181818181822731
 21
1.2500000000006408
  0
LINE
  8
0
 62
50
  6
CONTINUOUS
 10
-5.2727272727272831
 20
1.4318181818181819
 11
-5.2727272727272831
 21
1.2954545454545454
  0
LINE
  8
0
 62
50
  6
CONTINUOUS
 10
-5.6818181818186364
 20
1.2500000000006408
 11
-5.6818181818186364
 21
-1.2499999999993592
  0
LINE
  8
0
 62
50
  6
CONTINUOUS
 10
-4.7727272727272831
 20
-1.2954545454545454
 11
-5.6363636363640914
 21
-1.2954545454539048
  0
LINE
  8
0
 62
50
  6
CONTINUOUS
 10
-5.2727272727272831
 20
-1.2954545454545454
 11
-5.2727272727272831
 21
-1.4318181818181819
  0
ARC
  8
0
 62
50
  6
CONTINUOUS
 10
-5.6363636363636571
 20
1.25
 40
0.045454545454545456
 50
90
 51
179.99999999919228
  0
ARC
  8
0
 62
50
  6
CONTINUOUS
 10
-5.6363636363640914
 20
-1.25
 40
0.045454545454545456
 50
179.99999999919228
 51
270
  0
ARC
  8
0
 62
50
  6
CONTINUOUS
 10
-5.6363636363636465
 20
-1.25
 40
0.18181818181818182
 50
179.99999999979806
 51
270
  0
ARC
  8
0
 62
50
  6
CONTINUOUS
 10
-5.6363636363640914
 20
1.25
 40
0.18181818181818182
 50
90
 51
179.99999999979806
  0
LINE
  8
0
 62
5
  6
DASHDOT
 10
-5.954545454545455
 20
0
 11
-5.545454545454545
 21
0
  0
LINE
  8
0
 62
50
  6
CONTINUOUS
 10
-5.8181818181818183
 20
1.25
 11
-12.5
 21
1.25
  0
LINE
  8
0
 62
50
  6
CONTINUOUS
 10
-12.5
 20
1.25
 11
-12.5
 21
-1.25
  0
LINE
  8
0
 62
50
  6
CONTINUOUS
 10
-12.5
 20
-1.25
 11
-5.8181818181818183
 21
-1.25
  0
LINE
  8
0
 62
50
  6
CONTINUOUS
 10
-12.5
 20
-0.43181818181818182
 11
-5.8181818181818183
 21
-0.43181818181818182
  0
LINE
  8
0
 62
50
  6
CONTINUOUS
 10
-12.5
 20
0.43181818181818182
 11
-5.8181818181818183
 21
0.43181818181818182
  0
LINE
  8
0
 62
5
  6
CONTINUOUS
 10
-12.5
 20
-0.61363636363636365
 11
-5.8181818181818183
 21
-0.61363636363636365
  0
LINE
  8
0
 62
5
  6
CONTINUOUS
 10
-12.5
 20
0.61363636363636365
 11
-5.8181818181818183
 21
0.61363636363636365
  0
LINE
  8
0
 62
5
  6
CONTINUOUS
 10
-12.5
 20
-1.0681818181818181
 11
-5.8181818181818183
 21
-1.0681818181818181
  0
LINE
  8
0
 62
5
  6
CONTINUOUS
 10
-12.5
 20
1.0681818181818181
 11
-5.8181818181818183
 21
1.0681818181818181
  0
ENDBLK
  0
BLOCK
  8
0
 62
5
  6
CONTINUOUS
  2
TELL_3
 70
0
 10
0
 20
0
  0
LINE
  8
0
 62
50
  6
CONTINUOUS
 10
4.7727272727272831
 20
-1.2954545454545454
 11
4.7727272727272831
 21
-1.4318181818181819
  0
LINE
  8
0
 62
50
  6
CONTINUOUS
 10
4.7727272727272831
 20
-1.4318181818181819
 11
5.6363636363640914
 21
-1.4318181818175411
  0
LINE
  8
0
 62
50
  6
CONTINUOUS
 10
4.7727272727272831
 20
1.4318181818181819
 11
5.6363636363640914
 21
1.4318181818188227
  0
LINE
  8
0
 62
50
  6
CONTINUOUS
 10
4.7727272727272831
 20
1.4318181818181819
 11
4.7727272727272831
 21
1.2954545454545454
  0
LINE
  8
0
 62
50
  6
CONTINUOUS
 10
4.7727272727272831
 20
1.2954545454545454
 11
5.6363636363640914
 21
1.2954545454551862
  0
LINE
  8
0
 62
50
  6
CONTINUOUS
 10
5.8181818181822731
 20
-1.2499999999993592
 11
5.8181818181822731
 21
1.2500000000006408
  0
LINE
  8
0
 62
50
  6
CONTINUOUS
 10
5.2727272727272831
 20
1.4318181818181819
 11
5.2727272727272831
 21
1.2954545454545454
  0
LINE
  8
0
 62
50
  6
CONTINUOUS
 10
5.6818181818186364
 20
1.2500000000006408
 11
5.6818181818186364
 21
-1.2499999999993592
  0
LINE
  8
0
 62
50
  6
CONTINUOUS
 10
4.7727272727272831
 20
-1.2954545454545454
 11
5.6363636363640914
 21
-1.2954545454539048
  0
LINE
  8
0
 62
50
  6
CONTINUOUS
 10
5.2727272727272831
 20
-1.2954545454545454
 11
5.2727272727272831
 21
-1.4318181818181819
  0
ARC
  8
0
 62
50
  6
CONTINUOUS
 10
5.6363636363636571
 20
1.25
 40
0.045454545454545456
 50
8.0774498201208189e-010
 51
90
  0
ARC
  8
0
 62
50
  6
CONTINUOUS
 10
5.6363636363640914
 20
-1.25
 40
0.045454545454545456
 50
270
 51
8.0774498201208189e-010
  0
ARC
  8
0
 62
50
  6
CONTINUOUS
 10
5.6363636363636465
 20
-1.25
 40
0.18181818181818182
 50
270
 51
2.0190782379359007e-010
  0
ARC
  8
0
 62
50
  6
CONTINUOUS
 10
5.6363636363640914
 20
1.25
 40
0.18181818181818182
 50
2.0190782379359007e-010
 51
90
  0
LINE
  8
0
 62
5
  6
DASHDOT
 10
5.954545454545455
 20
0
 11
5.545454545454545
 21
0
  0
LINE
  8
0
 62
50
  6
CONTINUOUS
 10
5.8181818181818183
 20
1.25
 11
12.5
 21
1.25
  0
LINE
  8
0
 62
50
  6
CONTINUOUS
 10
12.5
 20
1.25
 11
12.5
 21
-1.25
  0
LINE
  8
0
 62
50
  6
CONTINUOUS
 10
12.5
 20
-1.25
 11
5.8181818181818183
 21
-1.25
  0
LINE
  8
0
 62
5
  6
CONTINUOUS
 10
12.5
 20
-1.0681818181818181
 11
5.8181818181818183
 21
-1.0681818181818181
  0
LINE
  8
0
 62
5
  6
CONTINUOUS
 10
12.5
 20
1.0681818181818181
 11
5.8181818181818183
 21
1.0681818181818181
  0
ENDBLK
  0
BLOCK
  8
0
 62
5
  6
CONTINUOUS
  2
3_70_CRE__L_150
 70
0
 10
0
 20
3.7045454545454546
  0
LINE
  8
0
 62
50
  6
CONTINUOUS
 10
-3.4090909090909092
 20
3.8409090909090908
 11
3.4090909090909092
 21
3.8409090909090908
  0
LINE
  8
0
 62
50
  6
CONTINUOUS
 10
-3.4090909090909092
 20
3.2954545454545454
 11
-3.4090909090909092
 21
3.8409090909090908
  0
LINE
  8
0
 62
50
  6
CONTINUOUS
 10
3.4090909090909092
 20
3.2954545454545454
 11
3.4090909090909092
 21
3.8409090909090908
  0
LINE
  8
0
 62
5
  6
CONTINUOUS
 10
-3.340909090786826
 20
3.6590909090960921
 11
3.3409090909090908
 21
3.6590909090960921
  0
LINE
  8
0
 62
50
  6
CONTINUOUS
 10
3.4090909090909092
 20
3.2954545454545454
 11
3.1204157744961196
 21
2.7954545454545454
  0
LINE
  8
0
 62
50
  6
CONTINUOUS
 10
3.1204157744961196
 20
2.7954545454545454
 11
-3.1204157744961196
 21
2.7954545454545454
  0
LINE
  8
0
 62
50
  6
CONTINUOUS
 10
-3.1204157744961196
 20
2.7954545454545454
 11
-3.4090909090909092
 21
3.2954545454545454
  0
LINE
  8
0
 62
5
  6
DASHDOT
 10
-2.7272727272726756
 20
3.5227272727324559
 11
-2.7272727272726756
 21
3.9772727272727275
  0
LINE
  8
0
 62
5
  6
DASHDOT
 10
2.7272727272726964
 20
3.5227272727324559
 11
2.7272727272726964
 21
3.9772727272727275
  0
LINE
  8
0
 62
50
  6
CONTINUOUS
 10
-1.4090909090909092
 20
3.8409090909090908
 11
-1.4090909090909092
 21
10.522727272727273
  0
LINE
  8
0
 62
50
  6
CONTINUOUS
 10
-1.4090909090909092
 20
10.522727272727273
 11
1.4090909090909092
 21
10.522727272727273
  0
LINE
  8
0
 62
50
  6
CONTINUOUS
 10
1.4090909090909092
 20
10.522727272727273
 11
1.4090909090909092
 21
3.8409090909090908
  0
LINE
  8
0
 62
140
  6
HIDDEN
 10
-1.3181818181818183
 20
3.8409090909090908
 11
-1.3181818181818183
 21
10.522727272727273
  0
LINE
  8
0
 62
140
  6
HIDDEN
 10
1.3181818181818183
 20
3.8409090909090908
 11
1.3181818181818183
 21
10.522727272727273
  0
LINE
  8
0
 62
140
  6
HIDDEN
 10
1.0454545454545454
 20
3.8409090909090908
 11
1.0454545454545454
 21
10.522727272727273
  0
LINE
  8
0
 62
5
  6
CONTINUOUS
 10
-1.2272727272727273
 20
3.8409090909090908
 11
-1.2272727272727273
 21
10.522727272727273
  0
LINE
  8
0
 62
5
  6
CONTINUOUS
 10
1.2272727272727273
 20
3.8409090909090908
 11
1.2272727272727273
 21
10.522727272727273
  0
ENDBLK
  0
BLOCK
  8
0
 62
50
  6
CONTINUOUS
  2
FIXATIONE04
 70
0
 10
0
 20
0
  0
INSERT
  8
0
 62
5
  6
CONTINUOUS
  2
TELL_1
 10
0
 20
0
 41
1.0
 42
1.0
 50
0.0
  0
INSERT
  8
0
 62
5
  6
CONTINUOUS
  2
TELL_2
 10
-5.6818181818181817
 20
0
 41
1.0
 42
1.0
 50
0.0
  0
INSERT
  8
0
 62
5
  6
CONTINUOUS
  2
TELL_3
 10
0
 20
0
 41
1.0
 42
1.0
 50
0.0
  0
INSERT
  8
0
 62
5
  6
CONTINUOUS
  2
3_70_CRE__L_150
 10
0
 20
3.7045454545454546
 41
1.0
 42
1.0
 50
0.0
  0
ENDBLK
  0
ENDSEC
  0
SECTION
  2
ENTITIES
  0
INSERT
  8
0
 62
50
  6
CONTINUOUS
  2
FIXATIONE04
 10
0
 20
0
 41
1.0
 42
1.0
 50
0.0
  0
ENDSEC
  0
EOF
