  0
SECTION
  2
HEADER
  9
$ACADVER
  1
AC1009
  9
$EXTMIN
 10
-12.5
 20
-1.3782051282051284
  9
$EXTMAX
 10
12.5
 20
10.673076923076925
  9
$TEXTSTYLE
  7
STANDARD
  9
$DIMLFAC
 40
1
  9
$REGENMODE
 70
1
  9
$DRAGMODE
 70
2
  9
$DIMASO
 70
1
  9
$LTSCALE
 40
1.0000000000
  0
ENDSEC
  0
SECTION
  2
TABLES
  0
TABLE
  2
LTYPE
 70
3
  0
LTYPE
  2
CONTINUOUS
 70
64
  3
CONTINUOUS
 72
65
 73
0
 40
0.0000000000
  0
LTYPE
  2
HIDDEN
 70
64
  3
HIDDEN
 72
65
 73
2
 40
0.5000000000
 49
0.2500000000
 49
-0.2500000000
  0
LTYPE
  2
DASHDOT
 70
64
  3
DASHDOT
 72
65
 73
4
 40
1.0000000000
 49
0.5000000000
 49
-0.2500000000
 49
0.0000000000
 49
-0.2500000000
  0
ENDTAB
  0
TABLE
  2
LAYER
 70
1
  0
LAYER
  2
0
 70
0
 62
2
  6
CONTINUOUS
  0
ENDTAB
  0
TABLE
  2
STYLE
 70
0
  0
STYLE
  2
Standard
 70
0
 40
0
 41
1
 50
0
 71
0
 42
2.5
  3
txt
  4

  0
ENDTAB
  0
ENDSEC
  0
SECTION
  2
BLOCKS
  0
BLOCK
  8
0
 62
5
  6
CONTINUOUS
  2
TELL_1
 70
0
 10
0
 20
0
  0
LINE
  8
0
 62
50
  6
CONTINUOUS
 10
-3.2051282051282057
 20
1.3782051282051284
 11
3.2051282051282057
 21
1.3782051282051284
  0
LINE
  8
0
 62
50
  6
CONTINUOUS
 10
3.2051282051282057
 20
-1.3782051282051284
 11
3.2051282051282057
 21
1.3782051282051284
  0
LINE
  8
0
 62
50
  6
CONTINUOUS
 10
3.2051282051282057
 20
-1.3782051282051284
 11
-3.2051282051282057
 21
-1.3782051282051284
  0
LINE
  8
0
 62
50
  6
CONTINUOUS
 10
-3.2051282051282057
 20
-1.3782051282051284
 11
-3.2051282051282057
 21
1.3782051282051284
  0
LINE
  8
0
 62
5
  6
CONTINUOUS
 10
-0.86538461544043865
 20
1.121794871816691
 11
-3.2051282051840286
 21
1.121794871816691
  0
LINE
  8
0
 62
50
  6
CONTINUOUS
 10
-0.86538461538273526
 20
1.1217948717974591
 11
0.86538461538649569
 21
1.1217948717974591
  0
LINE
  8
0
 62
5
  6
CONTINUOUS
 10
0.86538461532879229
 20
1.121794871816691
 11
3.2051282050723824
 21
1.121794871816691
  0
LINE
  8
0
 62
50
  6
CONTINUOUS
 10
1.1217948717967521
 20
0.86538461538720257
 11
1.121794871794872
 21
0.41666666666666674
  0
LINE
  8
0
 62
50
  6
CONTINUOUS
 10
1.121794871794872
 20
0.41666666666666674
 11
0.99358974358974372
 21
0.41666666666666674
  0
LINE
  8
0
 62
50
  6
CONTINUOUS
 10
0.99358974358974372
 20
0.41666666666666674
 11
0.99358974359162389
 21
0.86538461538720257
  0
LINE
  8
0
 62
50
  6
CONTINUOUS
 10
0.86538461538649569
 20
0.99358974359233088
 11
-0.86538461538273526
 21
0.99358974358974372
  0
LINE
  8
0
 62
50
  6
CONTINUOUS
 10
-0.99358974358786356
 20
0.86538461538720257
 11
-0.99358974358974372
 21
-0.86538461538202838
  0
LINE
  8
0
 62
50
  6
CONTINUOUS
 10
-0.86538461538273526
 20
-0.99358974358715657
 11
0.86538461538649569
 21
-0.99358974358715657
  0
LINE
  8
0
 62
50
  6
CONTINUOUS
 10
0.99358974359162389
 20
-0.86538461538202838
 11
0.99358974358974372
 21
-0.41666666666666674
  0
LINE
  8
0
 62
50
  6
CONTINUOUS
 10
0.99358974358974372
 20
-0.41666666666666674
 11
1.121794871794872
 21
-0.41666666666666674
  0
LINE
  8
0
 62
50
  6
CONTINUOUS
 10
1.121794871794872
 20
-0.41666666666666674
 11
1.1217948717967521
 21
-0.86538461538202838
  0
LINE
  8
0
 62
50
  6
CONTINUOUS
 10
-0.86538461538273526
 20
-1.1217948717922848
 11
0.86538461538649569
 21
-1.1217948717922848
  0
LINE
  8
0
 62
50
  6
CONTINUOUS
 10
-1.1217948717929918
 20
-0.86538461538202838
 11
-1.121794871794872
 21
0.86538461538720257
  0
CIRCLE
  8
0
 62
50
  6
CONTINUOUS
 10
-2.3717948717949451
 20
-1.457523560533539e-014
 40
0.33653846153838868
  0
CIRCLE
  8
0
 62
50
  6
CONTINUOUS
 10
2.9150471210670781e-014
 20
7.2876178026676951e-015
 40
0.19230769230772149
  0
CIRCLE
  8
0
 62
50
  6
CONTINUOUS
 10
2.3717948717948723
 20
-7.2876178026676951e-015
 40
0.3365384615384554
  0
LINE
  8
0
 62
5
  6
DASHDOT
 10
-2.7756410256410087
 20
-1.457523560533539e-014
 11
-1.9679487179488815
 21
-1.457523560533539e-014
  0
LINE
  8
0
 62
5
  6
DASHDOT
 10
-2.3717948717949451
 20
-0.40384615384607808
 11
-2.3717948717949451
 21
0.40384615384604894
  0
LINE
  8
0
 62
5
  6
DASHDOT
 10
1.9679487179487212
 20
-7.2876178026676951e-015
 11
2.7756410256410229
 21
-7.2876178026676951e-015
  0
LINE
  8
0
 62
5
  6
DASHDOT
 10
2.3717948717948723
 20
-0.40384615384615097
 11
2.3717948717948723
 21
0.40384615384613642
  0
ARC
  8
0
 62
50
  6
CONTINUOUS
 10
-0.86538461538461553
 20
0.86538461538461553
 40
0.25641025641025644
 50
90
 51
179.9999999994219
  0
ARC
  8
0
 62
50
  6
CONTINUOUS
 10
-0.86538461538461553
 20
-0.86538461538461553
 40
0.25641025641025644
 50
179.9999999994219
 51
270
  0
ARC
  8
0
 62
50
  6
CONTINUOUS
 10
0.86538461538461553
 20
0.86538461538720257
 40
0.25641025641025644
 50
0
 51
90
  0
ARC
  8
0
 62
50
  6
CONTINUOUS
 10
0.86538461538461553
 20
-0.86538461538202838
 40
0.25641025641025644
 50
270
 51
0
  0
ARC
  8
0
 62
50
  6
CONTINUOUS
 10
-0.86538461538463007
 20
-0.86538461538461553
 40
0.12820512820512822
 50
179.9999999988438
 51
270
  0
ARC
  8
0
 62
50
  6
CONTINUOUS
 10
0.86538461538461553
 20
-0.86538461538202838
 40
0.12820512820512822
 50
270
 51
0
  0
ARC
  8
0
 62
50
  6
CONTINUOUS
 10
-0.86538461538463007
 20
0.86538461538461553
 40
0.12820512820512822
 50
90
 51
179.9999999988438
  0
ARC
  8
0
 62
50
  6
CONTINUOUS
 10
0.86538461538461553
 20
0.86538461538461553
 40
0.12820512820512822
 50
1.1561952377886614e-009
 51
90
  0
LINE
  8
0
 62
5
  6
CONTINUOUS
 10
-3.2051282051282057
 20
-1.121794871794872
 11
-0.86538461538273526
 21
-1.1217948717922848
  0
LINE
  8
0
 62
5
  6
CONTINUOUS
 10
0.86538461538649569
 20
-1.1217948717922848
 11
3.2051282051282057
 21
-1.121794871794872
  0
ENDBLK
  0
BLOCK
  8
0
 62
5
  6
CONTINUOUS
  2
TELL_2
 70
0
 10
-6.0897435897435894
 20
0
  0
LINE
  8
0
 62
50
  6
CONTINUOUS
 10
-5.1282051282051286
 20
1.3782051282051284
 11
-6.0256410256391462
 21
1.3782051282077155
  0
LINE
  8
0
 62
50
  6
CONTINUOUS
 10
-5.1282051282051286
 20
1.3782051282051284
 11
-5.1282051282051286
 21
1.1858974358974361
  0
LINE
  8
0
 62
50
  6
CONTINUOUS
 10
-5.1282051282051286
 20
-1.1858974358974361
 11
-6.0256410256391462
 21
-1.1858974358948489
  0
LINE
  8
0
 62
50
  6
CONTINUOUS
 10
-5.1282051282051286
 20
-1.1858974358974361
 11
-5.1282051282051286
 21
-1.3782051282051284
  0
LINE
  8
0
 62
50
  6
CONTINUOUS
 10
-6.2820512820494026
 20
-1.1217948717922848
 11
-6.2820512820494026
 21
1.1217948717974591
  0
LINE
  8
0
 62
50
  6
CONTINUOUS
 10
-5.8333333333333339
 20
1.3782051282051284
 11
-5.8333333333333339
 21
1.1858974358974361
  0
LINE
  8
0
 62
50
  6
CONTINUOUS
 10
-5.1282051282051286
 20
1.1858974358974361
 11
-6.0256410256391462
 21
1.1858974359000232
  0
LINE
  8
0
 62
50
  6
CONTINUOUS
 10
-6.08974358974171
 20
1.1217948717974591
 11
-6.0897435897435903
 21
-1.1217948717922848
  0
LINE
  8
0
 62
50
  6
CONTINUOUS
 10
-5.8333333333333339
 20
-1.1858974358974361
 11
-5.8333333333333339
 21
-1.3782051282051284
  0
LINE
  8
0
 62
50
  6
CONTINUOUS
 10
-5.1282051282051286
 20
-1.3782051282051284
 11
-6.0256410256391462
 21
-1.3782051282025414
  0
ARC
  8
0
 62
50
  6
CONTINUOUS
 10
-6.0256410256410264
 20
-1.121794871794872
 40
0.064102564102564111
 50
179.99999999768761
 51
270
  0
ARC
  8
0
 62
50
  6
CONTINUOUS
 10
-6.0256410256410264
 20
1.121794871794872
 40
0.064102564102564111
 50
90
 51
179.99999999768761
  0
ARC
  8
0
 62
50
  6
CONTINUOUS
 10
-6.0256410256410264
 20
-1.121794871794872
 40
0.25641025641025644
 50
179.9999999994219
 51
270
  0
ARC
  8
0
 62
50
  6
CONTINUOUS
 10
-6.0256410256391462
 20
1.121794871794872
 40
0.25641025641025644
 50
90
 51
179.9999999994219
  0
LINE
  8
0
 62
50
  6
CONTINUOUS
 10
-6.2820512820512828
 20
-1.121794871794872
 11
-12.5
 21
-1.121794871794872
  0
LINE
  8
0
 62
50
  6
CONTINUOUS
 10
-12.5
 20
-1.121794871794872
 11
-12.5
 21
1.121794871794872
  0
LINE
  8
0
 62
50
  6
CONTINUOUS
 10
-12.5
 20
1.121794871794872
 11
-6.2820512820512828
 21
1.121794871794872
  0
LINE
  8
0
 62
50
  6
CONTINUOUS
 10
-12.5
 20
-0.41666666666666674
 11
-6.2820512820512828
 21
-0.41666666666666674
  0
LINE
  8
0
 62
50
  6
CONTINUOUS
 10
-12.5
 20
0.41666666666666674
 11
-6.2820512820512828
 21
0.41666666666666674
  0
LINE
  8
0
 62
5
  6
CONTINUOUS
 10
-12.5
 20
-0.86538461538461553
 11
-6.2820512820512828
 21
-0.86538461538461553
  0
LINE
  8
0
 62
5
  6
CONTINUOUS
 10
-12.5
 20
0.86538461538461553
 11
-6.2820512820512828
 21
0.86538461538461553
  0
LINE
  8
0
 62
5
  6
DASHDOT
 10
-6.4743589743589753
 20
0
 11
-5.8974358974358969
 21
0
  0
ENDBLK
  0
BLOCK
  8
0
 62
5
  6
CONTINUOUS
  2
TELL_3
 70
0
 10
6.0897435897435894
 20
0
  0
LINE
  8
0
 62
50
  6
CONTINUOUS
 10
5.1282051282051286
 20
1.3782051282051284
 11
6.0256410256391462
 21
1.3782051282077155
  0
LINE
  8
0
 62
50
  6
CONTINUOUS
 10
5.1282051282051286
 20
1.3782051282051284
 11
5.1282051282051286
 21
1.1858974358974361
  0
LINE
  8
0
 62
50
  6
CONTINUOUS
 10
5.1282051282051286
 20
-1.1858974358974361
 11
6.0256410256391462
 21
-1.1858974358948489
  0
LINE
  8
0
 62
50
  6
CONTINUOUS
 10
5.1282051282051286
 20
-1.1858974358974361
 11
5.1282051282051286
 21
-1.3782051282051284
  0
LINE
  8
0
 62
50
  6
CONTINUOUS
 10
6.2820512820494026
 20
-1.1217948717922848
 11
6.2820512820494026
 21
1.1217948717974591
  0
LINE
  8
0
 62
50
  6
CONTINUOUS
 10
5.8333333333333339
 20
1.3782051282051284
 11
5.8333333333333339
 21
1.1858974358974361
  0
LINE
  8
0
 62
50
  6
CONTINUOUS
 10
5.1282051282051286
 20
1.1858974358974361
 11
6.0256410256391462
 21
1.1858974359000232
  0
LINE
  8
0
 62
50
  6
CONTINUOUS
 10
6.08974358974171
 20
1.1217948717974591
 11
6.0897435897435903
 21
-1.1217948717922848
  0
LINE
  8
0
 62
50
  6
CONTINUOUS
 10
5.8333333333333339
 20
-1.1858974358974361
 11
5.8333333333333339
 21
-1.3782051282051284
  0
LINE
  8
0
 62
50
  6
CONTINUOUS
 10
5.1282051282051286
 20
-1.3782051282051284
 11
6.0256410256391462
 21
-1.3782051282025414
  0
ARC
  8
0
 62
50
  6
CONTINUOUS
 10
6.0256410256410264
 20
-1.121794871794872
 40
0.064102564102564111
 50
270
 51
2.31239027925767e-009
  0
ARC
  8
0
 62
50
  6
CONTINUOUS
 10
6.0256410256410264
 20
1.121794871794872
 40
0.064102564102564111
 50
2.31239027925767e-009
 51
90
  0
ARC
  8
0
 62
50
  6
CONTINUOUS
 10
6.0256410256410264
 20
-1.121794871794872
 40
0.25641025641025644
 50
270
 51
5.7809756981441751e-010
  0
ARC
  8
0
 62
50
  6
CONTINUOUS
 10
6.0256410256391462
 20
1.121794871794872
 40
0.25641025641025644
 50
5.7809756981441751e-010
 51
90
  0
LINE
  8
0
 62
50
  6
CONTINUOUS
 10
6.2820512820512828
 20
-1.121794871794872
 11
12.5
 21
-1.121794871794872
  0
LINE
  8
0
 62
50
  6
CONTINUOUS
 10
12.5
 20
-1.121794871794872
 11
12.5
 21
1.121794871794872
  0
LINE
  8
0
 62
50
  6
CONTINUOUS
 10
12.5
 20
1.121794871794872
 11
6.2820512820512828
 21
1.121794871794872
  0
LINE
  8
0
 62
5
  6
CONTINUOUS
 10
12.5
 20
-0.86538461538461553
 11
6.2820512820512828
 21
-0.86538461538461553
  0
LINE
  8
0
 62
5
  6
CONTINUOUS
 10
12.5
 20
0.86538461538461553
 11
6.2820512820512828
 21
0.86538461538461553
  0
LINE
  8
0
 62
5
  6
DASHDOT
 10
6.4743589743589753
 20
0
 11
5.8974358974358969
 21
0
  0
ENDBLK
  0
BLOCK
  8
0
 62
5
  6
CONTINUOUS
  2
3_70_CE__L_100
 70
0
 10
0
 20
4.2628205128205137
  0
LINE
  8
0
 62
50
  6
CONTINUOUS
 10
-3.2051282051282057
 20
4.4551282051282053
 11
3.2051282051282057
 21
4.4551282051282053
  0
LINE
  8
0
 62
50
  6
CONTINUOUS
 10
-3.2051282051282057
 20
4.0064102564102573
 11
-3.2051282051282057
 21
4.4551282051282053
  0
LINE
  8
0
 62
5
  6
CONTINUOUS
 10
-3.1089743590301824
 20
4.1987179487397688
 11
3.1089743589185361
 21
4.1987179487397688
  0
LINE
  8
0
 62
50
  6
CONTINUOUS
 10
3.2051282051282057
 20
4.0064102564102573
 11
3.2051282051282057
 21
4.4551282051282053
  0
LINE
  8
0
 62
50
  6
CONTINUOUS
 10
3.2051282051282057
 20
4.0064102564102573
 11
2.7980222460842428
 21
3.3012820512820515
  0
LINE
  8
0
 62
50
  6
CONTINUOUS
 10
2.7980222460842428
 20
3.3012820512820515
 11
-2.7980222460842428
 21
3.3012820512820515
  0
LINE
  8
0
 62
50
  6
CONTINUOUS
 10
-2.7980222460842428
 20
3.3012820512820515
 11
-3.2051282051282057
 21
4.0064102564102573
  0
LINE
  8
0
 62
5
  6
DASHDOT
 10
-2.3717948717949451
 20
4.0064102564320763
 11
-2.3717948717949451
 21
4.6474358974358978
  0
LINE
  8
0
 62
5
  6
DASHDOT
 10
2.3717948717948723
 20
4.0064102564320763
 11
2.3717948717948723
 21
4.6474358974358978
  0
LINE
  8
0
 62
50
  6
CONTINUOUS
 10
-1.121794871794872
 20
4.4551282051282053
 11
-1.121794871794872
 21
10.673076923076925
  0
LINE
  8
0
 62
50
  6
CONTINUOUS
 10
-1.121794871794872
 20
10.673076923076925
 11
1.121794871794872
 21
10.673076923076925
  0
LINE
  8
0
 62
50
  6
CONTINUOUS
 10
1.121794871794872
 20
10.673076923076925
 11
1.121794871794872
 21
4.4551282051282053
  0
LINE
  8
0
 62
140
  6
HIDDEN
 10
-0.99358974358974372
 20
4.4551282051282053
 11
-0.99358974358974372
 21
10.673076923076925
  0
LINE
  8
0
 62
140
  6
HIDDEN
 10
0.99358974358974372
 20
4.4551282051282053
 11
0.99358974358974372
 21
10.673076923076925
  0
LINE
  8
0
 62
5
  6
CONTINUOUS
 10
-0.86538461538461553
 20
4.4551282051282053
 11
-0.86538461538461553
 21
10.673076923076925
  0
LINE
  8
0
 62
5
  6
CONTINUOUS
 10
0.86538461538461553
 20
4.4551282051282053
 11
0.86538461538461553
 21
10.673076923076925
  0
ENDBLK
  0
BLOCK
  8
0
 62
50
  6
CONTINUOUS
  2
FIXATIONE03
 70
0
 10
0
 20
0
  0
INSERT
  8
0
 62
5
  6
CONTINUOUS
  2
TELL_1
 10
0
 20
0
 41
1.0
 42
1.0
 50
0.0
  0
INSERT
  8
0
 62
5
  6
CONTINUOUS
  2
TELL_2
 10
-6.0897435897435894
 20
0
 41
1.0
 42
1.0
 50
0.0
  0
INSERT
  8
0
 62
5
  6
CONTINUOUS
  2
TELL_3
 10
6.0897435897435894
 20
0
 41
1.0
 42
1.0
 50
0.0
  0
INSERT
  8
0
 62
5
  6
CONTINUOUS
  2
3_70_CE__L_100
 10
0
 20
4.2628205128205137
 41
1.0
 42
1.0
 50
0.0
  0
ENDBLK
  0
ENDSEC
  0
SECTION
  2
ENTITIES
  0
INSERT
  8
0
 62
50
  6
CONTINUOUS
  2
FIXATIONE03
 10
0
 20
0
 41
1.0
 42
1.0
 50
0.0
  0
ENDSEC
  0
EOF
