  0
SECTION
  2
HEADER
  9
$ACADVER
  1
AC1009
  9
$EXTMIN
 10
-6.1440677966101696
 20
-10.734463276836159
  9
$EXTMAX
 10
18.008474576271183
 20
14.265536723163843
  9
$TEXTSTYLE
  7
STANDARD
  9
$DIMLFAC
 40
1
  9
$REGENMODE
 70
1
  9
$DRAGMODE
 70
2
  9
$DIMASO
 70
1
  9
$LTSCALE
 40
1.0000000000
  0
ENDSEC
  0
SECTION
  2
TABLES
  0
TABLE
  2
LTYPE
 70
2
  0
LTYPE
  2
CONTINUOUS
 70
64
  3
CONTINUOUS
 72
65
 73
0
 40
0.0000000000
  0
LTYPE
  2
DASHDOT
 70
64
  3
DASHDOT
 72
65
 73
4
 40
1.0000000000
 49
0.5000000000
 49
-0.2500000000
 49
0.0000000000
 49
-0.2500000000
  0
ENDTAB
  0
TABLE
  2
LAYER
 70
1
  0
LAYER
  2
0
 70
0
 62
2
  6
CONTINUOUS
  0
ENDTAB
  0
TABLE
  2
STYLE
 70
0
  0
STYLE
  2
Standard
 70
0
 40
0
 41
1
 50
0
 71
0
 42
2.5
  3
txt
  4

  0
ENDTAB
  0
ENDSEC
  0
SECTION
  2
BLOCKS
  0
BLOCK
  8
0
 62
50
  6
CONTINUOUS
  2
3_40_PROFIL_CS
 70
0
 10
2.4622211761175281e-089
 20
-7.0621468926553677
  0
LINE
  8
0
 62
50
  6
CONTINUOUS
 10
-2.3305084745762734
 20
-4.3432203389830528
 11
-2.3305084745762694
 21
-9.7810734463276852
  0
LINE
  8
0
 62
50
  6
CONTINUOUS
 10
-2.1892655367231617
 20
-9.9223163841807924
 11
-0.98870056497174841
 21
-9.9223163841807906
  0
LINE
  8
0
 62
50
  6
CONTINUOUS
 10
-0.84745762711864125
 20
-9.7810734463276834
 11
-0.8474576271186417
 21
-9.0042372881355934
  0
LINE
  8
0
 62
50
  6
CONTINUOUS
 10
-0.8474576271186417
 20
-9.0042372881355934
 11
-0.70621468926553432
 21
-9.0042372881355934
  0
LINE
  8
0
 62
50
  6
CONTINUOUS
 10
-0.70621468926553432
 20
-9.0042372881355934
 11
-0.70621468926553388
 21
-9.7810734463276834
  0
LINE
  8
0
 62
50
  6
CONTINUOUS
 10
-0.9887005649717483
 20
-10.063559322033898
 11
-2.1892655367231617
 21
-10.0635593220339
  0
LINE
  8
0
 62
50
  6
CONTINUOUS
 10
-2.4717514124293767
 20
-9.7810734463276852
 11
-2.4717514124293807
 21
-4.3432203389830528
  0
LINE
  8
0
 62
50
  6
CONTINUOUS
 10
-2.1892655367231657
 20
-4.0607344632768374
 11
2.1892655367231608
 21
-4.0607344632768347
  0
LINE
  8
0
 62
50
  6
CONTINUOUS
 10
2.4717514124293758
 20
-4.3432203389830493
 11
2.4717514124293816
 21
-9.7810734463276816
  0
LINE
  8
0
 62
50
  6
CONTINUOUS
 10
2.189265536723167
 20
-10.063559322033896
 11
0.98870056497175451
 21
-10.063559322033898
  0
LINE
  8
0
 62
50
  6
CONTINUOUS
 10
0.70621468926553965
 20
-9.7810734463276834
 11
0.7062146892655391
 21
-9.0042372881355934
  0
LINE
  8
0
 62
50
  6
CONTINUOUS
 10
0.7062146892655391
 20
-9.0042372881355934
 11
0.84745762711864647
 21
-9.0042372881355934
  0
LINE
  8
0
 62
50
  6
CONTINUOUS
 10
0.84745762711864647
 20
-9.0042372881355934
 11
0.84745762711864692
 21
-9.7810734463276834
  0
LINE
  8
0
 62
50
  6
CONTINUOUS
 10
0.9887005649717544
 20
-9.9223163841807906
 11
2.189265536723167
 21
-9.9223163841807889
  0
LINE
  8
0
 62
50
  6
CONTINUOUS
 10
2.3305084745762743
 20
-9.7810734463276816
 11
2.3305084745762681
 21
-4.3432203389830493
  0
LINE
  8
0
 62
50
  6
CONTINUOUS
 10
2.1892655367231608
 20
-4.201977401129942
 11
-2.1892655367231657
 21
-4.2019774011299447
  0
ARC
  8
0
 62
50
  6
CONTINUOUS
 10
-2.1892655367231617
 20
-9.7810734463276852
 40
0.14124293785310735
 50
180
 51
270
  0
ARC
  8
0
 62
50
  6
CONTINUOUS
 10
-0.98870056497174852
 20
-9.7810734463276834
 40
0.14124293785310735
 50
270
 51
0
  0
ARC
  8
0
 62
50
  6
CONTINUOUS
 10
-2.1892655367231657
 20
-4.3432203389830528
 40
0.14124293785310735
 50
90
 51
180
  0
ARC
  8
0
 62
50
  6
CONTINUOUS
 10
2.1892655367231608
 20
-4.3432203389830493
 40
0.14124293785310735
 50
0
 51
90
  0
ARC
  8
0
 62
50
  6
CONTINUOUS
 10
2.189265536723167
 20
-9.7810734463276816
 40
0.14124293785310735
 50
270
 51
0
  0
ARC
  8
0
 62
50
  6
CONTINUOUS
 10
0.98870056497175429
 20
-9.7810734463276834
 40
0.14124293785310735
 50
180
 51
270
  0
ARC
  8
0
 62
50
  6
CONTINUOUS
 10
0.98870056497175429
 20
-9.7810734463276834
 40
0.2824858757062147
 50
180
 51
270
  0
ARC
  8
0
 62
50
  6
CONTINUOUS
 10
-0.98870056497174852
 20
-9.7810734463276834
 40
0.2824858757062147
 50
270
 51
0
  0
ARC
  8
0
 62
50
  6
CONTINUOUS
 10
-2.1892655367231617
 20
-9.7810734463276852
 40
0.2824858757062147
 50
180
 51
270
  0
ARC
  8
0
 62
50
  6
CONTINUOUS
 10
-2.1892655367231657
 20
-4.3432203389830528
 40
0.2824858757062147
 50
90
 51
180
  0
ARC
  8
0
 62
50
  6
CONTINUOUS
 10
2.1892655367231608
 20
-4.3432203389830493
 40
0.2824858757062147
 50
0
 51
90
  0
ARC
  8
0
 62
50
  6
CONTINUOUS
 10
2.189265536723167
 20
-9.7810734463276816
 40
0.2824858757062147
 50
270
 51
0
  0
ENDBLK
  0
BLOCK
  8
0
 62
5
  6
DASHDOT
  2
TELL_1
 70
0
 10
2.4622211761158189e-089
 20
-7.0621468926553677
  0
LINE
  8
0
 62
50
  6
CONTINUOUS
 10
6.0028248587570623
 20
-3.5310734463276838
 11
6.0028248587570623
 21
-10.593220338983052
  0
LINE
  8
0
 62
50
  6
CONTINUOUS
 10
6.0028248587570623
 20
-10.593220338983052
 11
-6.0028248587570623
 21
-10.593220338983052
  0
LINE
  8
0
 62
50
  6
CONTINUOUS
 10
-6.0028248587570623
 20
-10.593220338983052
 11
-6.0028248587570623
 21
-3.5310734463276838
  0
LINE
  8
0
 62
50
  6
CONTINUOUS
 10
-6.0028248587570623
 20
-3.5310734463276838
 11
6.0028248587570623
 21
-3.5310734463276838
  0
INSERT
  8
0
 62
50
  6
CONTINUOUS
  2
3_40_PROFIL_CS
 10
2.4622211761175281e-089
 20
-7.0621468926553677
 41
1.0
 42
1.0
 50
0.0
  0
ARC
  8
0
 62
50
  6
CONTINUOUS
 10
-4.2372881355932206
 20
-6.4971751412429368
 40
0.4943502824858757
 50
0
 51
180
  0
LINE
  8
0
 62
50
  6
CONTINUOUS
 10
-3.7429378531073447
 20
-6.4971751412429368
 11
-3.7429378531073447
 21
-7.6271186440677958
  0
ARC
  8
0
 62
50
  6
CONTINUOUS
 10
-4.2372881355932206
 20
-7.6271186440677958
 40
0.4943502824858757
 50
180
 51
0
  0
LINE
  8
0
 62
50
  6
CONTINUOUS
 10
-4.731638418079096
 20
-7.6271186440677958
 11
-4.731638418079096
 21
-6.4971751412429368
  0
LINE
  8
0
 62
5
  6
DASHDOT
 10
2.4622211761175281e-089
 20
-10.734463276836159
 11
3.5356675038011442e-089
 21
-3.3898305084745761
  0
LINE
  8
0
 62
5
  6
DASHDOT
 10
-6.1440677966101696
 20
-7.0621468926553677
 11
6.1440677966101696
 21
-7.0621468926553677
  0
LINE
  8
0
 62
5
  6
DASHDOT
 10
-4.2372881355932206
 20
-8.2627118644067785
 11
-4.2372881355932206
 21
-5.8615819209039559
  0
ARC
  8
0
 62
50
  6
CONTINUOUS
 10
4.2372881355932206
 20
-6.4971751412429368
 40
0.4943502824858757
 50
0
 51
180
  0
LINE
  8
0
 62
50
  6
CONTINUOUS
 10
3.7429378531073447
 20
-6.4971751412429368
 11
3.7429378531073447
 21
-7.6271186440677958
  0
ARC
  8
0
 62
50
  6
CONTINUOUS
 10
4.2372881355932206
 20
-7.6271186440677958
 40
0.4943502824858757
 50
180
 51
0
  0
LINE
  8
0
 62
50
  6
CONTINUOUS
 10
4.731638418079096
 20
-7.6271186440677958
 11
4.731638418079096
 21
-6.4971751412429368
  0
LINE
  8
0
 62
5
  6
DASHDOT
 10
4.2372881355932206
 20
-8.2627118644067785
 11
4.2372881355932206
 21
-5.8615819209039559
  0
ENDBLK
  0
BLOCK
  8
0
 62
5
  6
DASHDOT
  2
TELL_2
 70
0
 10
14.477401129943505
 20
0
  0
LINE
  8
0
 62
50
  6
CONTINUOUS
 10
18.008474576271183
 20
0.70621468926553677
 11
18.008474576271183
 21
0
  0
LINE
  8
0
 62
50
  6
CONTINUOUS
 10
18.008474576271183
 20
0
 11
10.94632768361582
 21
0
  0
LINE
  8
0
 62
50
  6
CONTINUOUS
 10
10.94632768361582
 20
0
 11
10.94632768361582
 21
0.70621468926553677
  0
LINE
  8
0
 62
50
  6
CONTINUOUS
 10
10.94632768361582
 20
0.70621468926553677
 11
18.008474576271183
 21
0.70621468926553677
  0
LINE
  8
0
 62
50
  6
CONTINUOUS
 10
11.475988700564974
 20
0.70621468926553677
 11
11.475988700564974
 21
14.124293785310735
  0
LINE
  8
0
 62
50
  6
CONTINUOUS
 10
11.475988700564974
 20
14.124293785310735
 11
17.478813559322035
 21
14.124293785310735
  0
LINE
  8
0
 62
50
  6
CONTINUOUS
 10
17.478813559322035
 20
14.124293785310735
 11
17.478813559322035
 21
0.70621468926553677
  0
LINE
  8
0
 62
5
  6
CONTINUOUS
 10
11.758474576271189
 20
0.84745762711864403
 11
11.758474576271189
 21
13.983050847457628
  0
LINE
  8
0
 62
5
  6
CONTINUOUS
 10
17.19632768361582
 20
0.84745762711864403
 11
17.19632768361582
 21
13.983050847457628
  0
LINE
  8
0
 62
5
  6
DASHDOT
 10
14.477401129943505
 20
-0.14124293785310735
 11
14.477401129943505
 21
14.265536723163843
  0
ENDBLK
  0
BLOCK
  8
0
 62
5
  6
DASHDOT
  2
3_61_CSB_L_200MM__21_2_-
 70
0
 10
0
 20
0
  0
LINE
  8
0
 62
50
  6
CONTINUOUS
 10
-6.0028248587570623
 20
0
 11
-6.0028248587570623
 21
0.70621468926553677
  0
LINE
  8
0
 62
50
  6
CONTINUOUS
 10
-6.0028248587570623
 20
0.70621468926553677
 11
6.0028248587570623
 21
0.70621468926553677
  0
LINE
  8
0
 62
50
  6
CONTINUOUS
 10
6.0028248587570623
 20
0.70621468926553677
 11
6.0028248587570623
 21
0
  0
LINE
  8
0
 62
50
  6
CONTINUOUS
 10
6.0028248587570623
 20
0
 11
-6.0028248587570623
 21
0
  0
LINE
  8
0
 62
5
  6
DASHDOT
 10
-4.2372881355932206
 20
-0.14124293785310735
 11
-4.2372881355932206
 21
0.84745762711864403
  0
LINE
  8
0
 62
5
  6
DASHDOT
 10
4.2372881355932206
 20
-0.14124293785310735
 11
4.2372881355932206
 21
0.84745762711864403
  0
LINE
  8
0
 62
50
  6
CONTINUOUS
 10
-2.4717514124293785
 20
0.70621468926553677
 11
-2.4717514124293785
 21
14.124293785310735
  0
LINE
  8
0
 62
50
  6
CONTINUOUS
 10
-2.4717514124293785
 20
14.124293785310735
 11
2.4717514124293785
 21
14.124293785310735
  0
LINE
  8
0
 62
50
  6
CONTINUOUS
 10
2.4717514124293785
 20
14.124293785310735
 11
2.4717514124293785
 21
0.70621468926553677
  0
LINE
  8
0
 62
5
  6
CONTINUOUS
 10
-2.1892655367231639
 20
0.84745762711864403
 11
-2.1892655367231639
 21
13.983050847457628
  0
LINE
  8
0
 62
5
  6
CONTINUOUS
 10
2.1892655367231639
 20
0.84745762711864403
 11
2.1892655367231639
 21
13.983050847457628
  0
LINE
  8
0
 62
50
  6
CONTINUOUS
 10
-0.70621468926553677
 20
0.70621468926553677
 11
-0.70621468926553677
 21
14.124293785310735
  0
LINE
  8
0
 62
50
  6
CONTINUOUS
 10
0.70621468926553677
 20
0.70621468926553677
 11
0.70621468926553677
 21
14.124293785310735
  0
LINE
  8
0
 62
5
  6
CONTINUOUS
 10
-0.98870056497175141
 20
0.84745762711864403
 11
-0.98870056497175141
 21
13.983050847457628
  0
LINE
  8
0
 62
5
  6
CONTINUOUS
 10
0.98870056497175141
 20
0.84745762711864403
 11
0.98870056497175141
 21
13.983050847457628
  0
LINE
  8
0
 62
5
  6
DASHDOT
 10
0
 20
-0.14124293785310735
 11
0
 21
14.265536723163843
  0
ENDBLK
  0
BLOCK
  8
0
 62
50
  6
CONTINUOUS
  2
FIXATIONE02
 70
0
 10
0
 20
0
  0
INSERT
  8
0
 62
5
  6
DASHDOT
  2
TELL_1
 10
2.4622211761158189e-089
 20
-7.0621468926553677
 41
1.0
 42
1.0
 50
0.0
  0
INSERT
  8
0
 62
5
  6
DASHDOT
  2
TELL_2
 10
14.477401129943505
 20
0
 41
1.0
 42
1.0
 50
0.0
  0
INSERT
  8
0
 62
5
  6
DASHDOT
  2
3_61_CSB_L_200MM__21_2_-
 10
0
 20
0
 41
1.0
 42
1.0
 50
0.0
  0
ENDBLK
  0
ENDSEC
  0
SECTION
  2
ENTITIES
  0
INSERT
  8
0
 62
50
  6
CONTINUOUS
  2
FIXATIONE02
 10
0
 20
0
 41
1.0
 42
1.0
 50
0.0
  0
ENDSEC
  0
EOF
