  0
SECTION
  2
HEADER
  9
$ACADVER
  1
AC1009
  9
$EXTMIN
 10
-7.201986754966887
 20
-10.927152317880795
  9
$EXTMAX
 10
17.798013245033111
 20
12.582781456953644
  9
$TEXTSTYLE
  7
STANDARD
  9
$DIMLFAC
 40
1
  9
$REGENMODE
 70
1
  9
$DRAGMODE
 70
2
  9
$DIMASO
 70
1
  9
$LTSCALE
 40
1.0000000000
  0
ENDSEC
  0
SECTION
  2
TABLES
  0
TABLE
  2
LTYPE
 70
2
  0
LTYPE
  2
CONTINUOUS
 70
64
  3
CONTINUOUS
 72
65
 73
0
 40
0.0000000000
  0
LTYPE
  2
DASHDOT
 70
64
  3
DASHDOT
 72
65
 73
4
 40
1.0000000000
 49
0.5000000000
 49
-0.2500000000
 49
0.0000000000
 49
-0.2500000000
  0
ENDTAB
  0
TABLE
  2
LAYER
 70
1
  0
LAYER
  2
0
 70
0
 62
2
  6
CONTINUOUS
  0
ENDTAB
  0
TABLE
  2
STYLE
 70
0
  0
STYLE
  2
Standard
 70
0
 40
0
 41
1
 50
0
 71
0
 42
2.5
  3
txt
  4

  0
ENDTAB
  0
ENDSEC
  0
SECTION
  2
BLOCKS
  0
BLOCK
  8
0
 62
50
  6
CONTINUOUS
  2
3_40_PROFIL_CR
 70
0
 10
1.9801053653634931e-089
 20
-7.4503311258278151
  0
LINE
  8
0
 62
50
  6
CONTINUOUS
 10
-2.1109271523178834
 20
-5.215231788079473
 11
-2.1109271523178785
 21
-9.6854304635761626
  0
LINE
  8
0
 62
50
  6
CONTINUOUS
 10
-1.9453642384105931
 20
-9.8509933774834462
 11
-1.1175496688741693
 21
-9.8509933774834462
  0
LINE
  8
0
 62
50
  6
CONTINUOUS
 10
-0.95198675496688467
 20
-9.685430463576159
 11
-0.95198675496688612
 21
-9.35430463576159
  0
LINE
  8
0
 62
50
  6
CONTINUOUS
 10
-0.95198675496688612
 20
-9.35430463576159
 11
-0.78642384105960139
 21
-9.35430463576159
  0
LINE
  8
0
 62
50
  6
CONTINUOUS
 10
-0.78642384105960139
 20
-9.35430463576159
 11
-0.78642384105959995
 21
-9.685430463576159
  0
LINE
  8
0
 62
50
  6
CONTINUOUS
 10
-1.1175496688741693
 20
-10.01655629139073
 11
-1.9453642384105931
 21
-10.016556291390732
  0
LINE
  8
0
 62
50
  6
CONTINUOUS
 10
-2.276490066225163
 20
-9.6854304635761626
 11
-2.2764900662251684
 21
-5.215231788079473
  0
LINE
  8
0
 62
50
  6
CONTINUOUS
 10
-1.9453642384105991
 20
-4.8841059602649031
 11
1.9453642384105931
 21
-4.8841059602648986
  0
LINE
  8
0
 62
50
  6
CONTINUOUS
 10
2.276490066225163
 20
-5.2152317880794685
 11
2.2764900662251684
 21
-9.6854304635761572
  0
LINE
  8
0
 62
50
  6
CONTINUOUS
 10
1.9453642384105991
 20
-10.016556291390726
 11
1.1175496688741753
 21
-10.016556291390728
  0
LINE
  8
0
 62
50
  6
CONTINUOUS
 10
0.7864238410596055
 20
-9.685430463576159
 11
0.78642384105960517
 21
-9.35430463576159
  0
LINE
  8
0
 62
50
  6
CONTINUOUS
 10
0.78642384105960517
 20
-9.35430463576159
 11
0.95198675496689
 21
-9.35430463576159
  0
LINE
  8
0
 62
50
  6
CONTINUOUS
 10
0.95198675496689
 20
-9.35430463576159
 11
0.95198675496689034
 21
-9.685430463576159
  0
LINE
  8
0
 62
50
  6
CONTINUOUS
 10
1.1175496688741753
 20
-9.8509933774834426
 11
1.9453642384105991
 21
-9.8509933774834426
  0
LINE
  8
0
 62
50
  6
CONTINUOUS
 10
2.1109271523178834
 20
-9.6854304635761572
 11
2.1109271523178785
 21
-5.2152317880794685
  0
LINE
  8
0
 62
50
  6
CONTINUOUS
 10
1.9453642384105931
 20
-5.0496688741721831
 11
-1.9453642384105991
 21
-5.0496688741721885
  0
ARC
  8
0
 62
50
  6
CONTINUOUS
 10
-1.9453642384105947
 20
-9.6854304635761626
 40
0.16556291390728478
 50
180
 51
270
  0
ARC
  8
0
 62
50
  6
CONTINUOUS
 10
-1.1175496688741695
 20
-9.6854304635761608
 40
0.16556291390728478
 50
270
 51
0
  0
ARC
  8
0
 62
50
  6
CONTINUOUS
 10
-1.9453642384105989
 20
-5.215231788079473
 40
0.16556291390728478
 50
90
 51
180
  0
ARC
  8
0
 62
50
  6
CONTINUOUS
 10
1.9453642384105936
 20
-5.2152317880794685
 40
0.16556291390728478
 50
0
 51
90
  0
ARC
  8
0
 62
50
  6
CONTINUOUS
 10
1.9453642384105989
 20
-9.6854304635761572
 40
0.16556291390728478
 50
270
 51
0
  0
ARC
  8
0
 62
50
  6
CONTINUOUS
 10
1.1175496688741751
 20
-9.685430463576159
 40
0.16556291390728478
 50
180
 51
270
  0
ARC
  8
0
 62
50
  6
CONTINUOUS
 10
1.1175496688741751
 20
-9.685430463576159
 40
0.33112582781456956
 50
180
 51
270
  0
ARC
  8
0
 62
50
  6
CONTINUOUS
 10
-1.1175496688741695
 20
-9.6854304635761608
 40
0.33112582781456956
 50
270
 51
0
  0
ARC
  8
0
 62
50
  6
CONTINUOUS
 10
-1.9453642384105936
 20
-9.6854304635761626
 40
0.33112582781456956
 50
180
 51
270
  0
ARC
  8
0
 62
50
  6
CONTINUOUS
 10
-1.9453642384105989
 20
-5.215231788079473
 40
0.33112582781456956
 50
90
 51
180
  0
ARC
  8
0
 62
50
  6
CONTINUOUS
 10
1.9453642384105936
 20
-5.2152317880794685
 40
0.33112582781456956
 50
0
 51
90
  0
ARC
  8
0
 62
50
  6
CONTINUOUS
 10
1.9453642384105989
 20
-9.6854304635761572
 40
0.33112582781456956
 50
270
 51
0
  0
ENDBLK
  0
BLOCK
  8
0
 62
5
  6
DASHDOT
  2
TELL_1
 70
0
 10
1.9801053653642386e-089
 20
-7.4503311258278151
  0
LINE
  8
0
 62
50
  6
CONTINUOUS
 10
7.0364238410596034
 20
-4.1390728476821197
 11
-7.0364238410596034
 21
-4.1390728476821197
  0
LINE
  8
0
 62
50
  6
CONTINUOUS
 10
7.0364238410596034
 20
-4.1390728476821197
 11
7.0364238410596034
 21
-10.761589403973511
  0
LINE
  8
0
 62
50
  6
CONTINUOUS
 10
7.0364238410596034
 20
-10.761589403973511
 11
-7.0364238410596034
 21
-10.761589403973511
  0
LINE
  8
0
 62
50
  6
CONTINUOUS
 10
-7.0364238410596034
 20
-10.761589403973511
 11
-7.0364238410596034
 21
-4.1390728476821197
  0
INSERT
  8
0
 62
50
  6
CONTINUOUS
  2
3_40_PROFIL_CR
 10
1.9801053653634931e-089
 20
-7.4503311258278151
 41
1.0
 42
1.0
 50
0.0
  0
ARC
  8
0
 62
50
  6
CONTINUOUS
 10
-4.9668874172185431
 20
-6.7880794701986744
 40
0.57947019867549676
 50
0
 51
180
  0
LINE
  8
0
 62
50
  6
CONTINUOUS
 10
-4.3874172185430469
 20
-6.7880794701986744
 11
-4.3874172185430469
 21
-8.1125827814569522
  0
ARC
  8
0
 62
50
  6
CONTINUOUS
 10
-4.9668874172185431
 20
-8.1125827814569522
 40
0.57947019867549676
 50
180
 51
0
  0
LINE
  8
0
 62
50
  6
CONTINUOUS
 10
-5.5463576158940402
 20
-8.1125827814569522
 11
-5.5463576158940402
 21
-6.7880794701986744
  0
LINE
  8
0
 62
5
  6
DASHDOT
 10
-7.201986754966887
 20
-7.4503311258278151
 11
7.201986754966887
 21
-7.4503311258278151
  0
LINE
  8
0
 62
5
  6
DASHDOT
 10
1.9801053653634931e-089
 20
-10.927152317880795
 11
3.0728205971515726e-089
 21
-3.9735099337748347
  0
LINE
  8
0
 62
5
  6
DASHDOT
 10
-4.9668874172185431
 20
-8.8576158940397338
 11
-4.9668874172185431
 21
-6.0430463576158955
  0
ARC
  8
0
 62
50
  6
CONTINUOUS
 10
4.9668874172185431
 20
-6.7880794701986744
 40
0.57947019867549676
 50
0
 51
180
  0
LINE
  8
0
 62
50
  6
CONTINUOUS
 10
5.5463576158940402
 20
-6.7880794701986744
 11
5.5463576158940402
 21
-8.1125827814569522
  0
ARC
  8
0
 62
50
  6
CONTINUOUS
 10
4.9668874172185431
 20
-8.1125827814569522
 40
0.57947019867549676
 50
180
 51
0
  0
LINE
  8
0
 62
50
  6
CONTINUOUS
 10
4.3874172185430469
 20
-8.1125827814569522
 11
4.3874172185430469
 21
-6.7880794701986744
  0
LINE
  8
0
 62
5
  6
DASHDOT
 10
4.9668874172185431
 20
-8.8576158940397338
 11
4.9668874172185431
 21
-6.0430463576158955
  0
ENDBLK
  0
BLOCK
  8
0
 62
5
  6
DASHDOT
  2
TELL_2
 70
0
 10
14.486754966887418
 20
0
  0
LINE
  8
0
 62
50
  6
CONTINUOUS
 10
17.798013245033111
 20
0.82781456953642385
 11
17.798013245033111
 21
0
  0
LINE
  8
0
 62
50
  6
CONTINUOUS
 10
17.798013245033111
 20
0
 11
11.17549668874172
 21
0
  0
LINE
  8
0
 62
50
  6
CONTINUOUS
 10
11.17549668874172
 20
0
 11
11.17549668874172
 21
0.82781456953642385
  0
LINE
  8
0
 62
50
  6
CONTINUOUS
 10
11.17549668874172
 20
0.82781456953642385
 11
17.798013245033111
 21
0.82781456953642385
  0
LINE
  8
0
 62
50
  6
CONTINUOUS
 10
11.920529801324504
 20
0.82781456953642385
 11
11.920529801324504
 21
12.417218543046358
  0
LINE
  8
0
 62
50
  6
CONTINUOUS
 10
11.920529801324504
 20
12.417218543046358
 11
17.052980132450333
 21
12.417218543046358
  0
LINE
  8
0
 62
50
  6
CONTINUOUS
 10
17.052980132450333
 20
12.417218543046358
 11
17.052980132450333
 21
0.82781456953642385
  0
LINE
  8
0
 62
5
  6
CONTINUOUS
 10
12.251655629139075
 20
0.99337748344370869
 11
12.251655629139075
 21
12.251655629139075
  0
LINE
  8
0
 62
5
  6
CONTINUOUS
 10
16.721854304635762
 20
0.99337748344370869
 11
16.721854304635762
 21
12.251655629139075
  0
LINE
  8
0
 62
5
  6
DASHDOT
 10
14.486754966887418
 20
-0.16556291390728478
 11
14.486754966887418
 21
12.582781456953644
  0
ENDBLK
  0
BLOCK
  8
0
 62
5
  6
DASHDOT
  2
3_61_CRB_L_150MM__21_2_-
 70
0
 10
0
 20
0
  0
LINE
  8
0
 62
50
  6
CONTINUOUS
 10
-7.0364238410596034
 20
0
 11
-7.0364238410596034
 21
0.82781456953642385
  0
LINE
  8
0
 62
50
  6
CONTINUOUS
 10
-7.0364238410596034
 20
0.82781456953642385
 11
7.0364238410596034
 21
0.82781456953642385
  0
LINE
  8
0
 62
50
  6
CONTINUOUS
 10
7.0364238410596034
 20
0.82781456953642385
 11
7.0364238410596034
 21
0
  0
LINE
  8
0
 62
50
  6
CONTINUOUS
 10
7.0364238410596034
 20
0
 11
-7.0364238410596034
 21
0
  0
LINE
  8
0
 62
5
  6
DASHDOT
 10
-4.9668874172185431
 20
-0.16556291390728478
 11
-4.9668874172185431
 21
0.99337748344370869
  0
LINE
  8
0
 62
5
  6
DASHDOT
 10
4.9668874172185431
 20
-0.16556291390728478
 11
4.9668874172185431
 21
0.99337748344370869
  0
LINE
  8
0
 62
50
  6
CONTINUOUS
 10
-2.2764900662251657
 20
0.82781456953642385
 11
-2.2764900662251657
 21
12.417218543046358
  0
LINE
  8
0
 62
50
  6
CONTINUOUS
 10
-2.2764900662251657
 20
12.417218543046358
 11
2.2764900662251657
 21
12.417218543046358
  0
LINE
  8
0
 62
50
  6
CONTINUOUS
 10
2.2764900662251657
 20
12.417218543046358
 11
2.2764900662251657
 21
0.82781456953642385
  0
LINE
  8
0
 62
50
  6
CONTINUOUS
 10
-0.78642384105960272
 20
0.82781456953642385
 11
-0.78642384105960272
 21
12.417218543046358
  0
LINE
  8
0
 62
50
  6
CONTINUOUS
 10
0.78642384105960272
 20
0.82781456953642385
 11
0.78642384105960272
 21
12.417218543046358
  0
LINE
  8
0
 62
5
  6
CONTINUOUS
 10
-1.9453642384105962
 20
0.99337748344370869
 11
-1.9453642384105962
 21
12.251655629139075
  0
LINE
  8
0
 62
5
  6
CONTINUOUS
 10
-1.1175496688741722
 20
0.99337748344370869
 11
-1.1175496688741722
 21
12.251655629139075
  0
LINE
  8
0
 62
5
  6
CONTINUOUS
 10
1.1175496688741722
 20
0.99337748344370869
 11
1.1175496688741722
 21
12.251655629139075
  0
LINE
  8
0
 62
5
  6
CONTINUOUS
 10
1.9453642384105962
 20
0.99337748344370869
 11
1.9453642384105962
 21
12.251655629139075
  0
LINE
  8
0
 62
5
  6
DASHDOT
 10
0
 20
-0.16556291390728478
 11
0
 21
12.582781456953644
  0
ENDBLK
  0
BLOCK
  8
0
 62
50
  6
CONTINUOUS
  2
FIXATIONE01
 70
0
 10
0
 20
0
  0
INSERT
  8
0
 62
5
  6
DASHDOT
  2
TELL_1
 10
1.9801053653642386e-089
 20
-7.4503311258278151
 41
1.0
 42
1.0
 50
0.0
  0
INSERT
  8
0
 62
5
  6
DASHDOT
  2
TELL_2
 10
14.486754966887418
 20
0
 41
1.0
 42
1.0
 50
0.0
  0
INSERT
  8
0
 62
5
  6
DASHDOT
  2
3_61_CRB_L_150MM__21_2_-
 10
0
 20
0
 41
1.0
 42
1.0
 50
0.0
  0
ENDBLK
  0
ENDSEC
  0
SECTION
  2
ENTITIES
  0
INSERT
  8
0
 62
50
  6
CONTINUOUS
  2
FIXATIONE01
 10
0
 20
0
 41
1.0
 42
1.0
 50
0.0
  0
ENDSEC
  0
EOF
