  0
SECTION
  2
HEADER
  9
$ACADVER
  1
AC1009
  9
$EXTMIN
 10
-5.1470588235294121
 20
-12.5
  9
$EXTMAX
 10
5.1470588235294121
 20
12.5
  9
$TEXTSTYLE
  7
STANDARD
  9
$DIMLFAC
 40
1
  9
$REGENMODE
 70
1
  9
$DRAGMODE
 70
2
  9
$DIMASO
 70
1
  9
$LTSCALE
 40
1.0000000000
  0
ENDSEC
  0
SECTION
  2
TABLES
  0
TABLE
  2
LTYPE
 70
1
  0
LTYPE
  2
CONTINUOUS
 70
64
  3
CONTINUOUS
 72
65
 73
0
 40
0.0000000000
  0
ENDTAB
  0
TABLE
  2
LAYER
 70
1
  0
LAYER
  2
0
 70
0
 62
2
  6
CONTINUOUS
  0
ENDTAB
  0
TABLE
  2
STYLE
 70
0
  0
STYLE
  2
Standard
 70
0
 40
0
 41
1
 50
0
 71
0
 42
2.5
  3
txt
  4

  0
ENDTAB
  0
ENDSEC
  0
SECTION
  2
BLOCKS
  0
BLOCK
  8
0
 62
50
  6
CONTINUOUS
  2
3_41_PROFIL_CSD
 70
0
 10
0
 20
0
  0
LINE
  8
0
 62
50
  6
CONTINUOUS
 10
-4.8529411764705888
 20
-0.58823529411764708
 11
-4.8529411764705888
 21
-11.911764705882353
  0
LINE
  8
0
 62
50
  6
CONTINUOUS
 10
-4.5588235294117645
 20
-12.205882352941178
 11
-2.0588235294117649
 21
-12.205882352941178
  0
LINE
  8
0
 62
50
  6
CONTINUOUS
 10
-1.7647058823529411
 20
-11.911764705882353
 11
-1.7647058823529411
 21
-10.294117647058824
  0
LINE
  8
0
 62
50
  6
CONTINUOUS
 10
-1.7647058823529411
 20
-10.294117647058824
 11
-1.4705882352941178
 21
-10.294117647058824
  0
LINE
  8
0
 62
50
  6
CONTINUOUS
 10
-1.4705882352941178
 20
-10.294117647058824
 11
-1.4705882352941178
 21
-11.911764705882353
  0
LINE
  8
0
 62
50
  6
CONTINUOUS
 10
-2.0588235294117649
 20
-12.5
 11
-4.5588235294117645
 21
-12.5
  0
LINE
  8
0
 62
50
  6
CONTINUOUS
 10
-5.1470588235294121
 20
-11.911764705882353
 11
-5.1470588235294121
 21
-0.58823529411764708
  0
LINE
  8
0
 62
50
  6
CONTINUOUS
 10
-4.5588235294117645
 20
0
 11
4.5588235294117645
 21
0
  0
LINE
  8
0
 62
50
  6
CONTINUOUS
 10
5.1470588235294121
 20
-0.58823529411764708
 11
5.1470588235294121
 21
-11.911764705882353
  0
LINE
  8
0
 62
50
  6
CONTINUOUS
 10
4.5588235294117645
 20
-12.5
 11
2.0588235294117649
 21
-12.5
  0
LINE
  8
0
 62
50
  6
CONTINUOUS
 10
1.4705882352941178
 20
-11.911764705882353
 11
1.4705882352941178
 21
-10.294117647058824
  0
LINE
  8
0
 62
50
  6
CONTINUOUS
 10
1.4705882352941178
 20
-10.294117647058824
 11
1.7647058823529411
 21
-10.294117647058824
  0
LINE
  8
0
 62
50
  6
CONTINUOUS
 10
1.7647058823529411
 20
-10.294117647058824
 11
1.7647058823529411
 21
-11.911764705882353
  0
LINE
  8
0
 62
50
  6
CONTINUOUS
 10
2.0588235294117649
 20
-12.205882352941178
 11
4.5588235294117645
 21
-12.205882352941178
  0
LINE
  8
0
 62
50
  6
CONTINUOUS
 10
4.8529411764705888
 20
-11.911764705882353
 11
4.8529411764705888
 21
-0.58823529411764708
  0
LINE
  8
0
 62
50
  6
CONTINUOUS
 10
4.5588235294117645
 20
-0.29411764705882354
 11
-4.5588235294117645
 21
-0.29411764705882354
  0
ARC
  8
0
 62
50
  6
CONTINUOUS
 10
-4.5588235294117654
 20
-0.58823529411764708
 40
0.29411764705882354
 50
90
 51
180
  0
ARC
  8
0
 62
50
  6
CONTINUOUS
 10
-4.5588235294117654
 20
-11.911764705882353
 40
0.29411764705882354
 50
180
 51
270
  0
ARC
  8
0
 62
50
  6
CONTINUOUS
 10
4.5588235294117654
 20
-11.911764705882353
 40
0.29411764705882354
 50
270
 51
0
  0
ARC
  8
0
 62
50
  6
CONTINUOUS
 10
-2.0588235294117649
 20
-11.911764705882353
 40
0.29411764705882354
 50
270
 51
0
  0
ARC
  8
0
 62
50
  6
CONTINUOUS
 10
2.0588235294117649
 20
-11.911764705882353
 40
0.29411764705882354
 50
180
 51
270
  0
ARC
  8
0
 62
50
  6
CONTINUOUS
 10
4.5588235294117654
 20
-0.58823529411764708
 40
0.29411764705882354
 50
0
 51
90
  0
ARC
  8
0
 62
50
  6
CONTINUOUS
 10
-2.0588235294117649
 20
-11.911764705882353
 40
0.58823529411764708
 50
270
 51
0
  0
ARC
  8
0
 62
50
  6
CONTINUOUS
 10
2.0588235294117649
 20
-11.911764705882353
 40
0.58823529411764708
 50
180
 51
270
  0
ARC
  8
0
 62
50
  6
CONTINUOUS
 10
4.5588235294117645
 20
-11.911764705882353
 40
0.58823529411764708
 50
270
 51
0
  0
ARC
  8
0
 62
50
  6
CONTINUOUS
 10
-4.5588235294117645
 20
-11.911764705882353
 40
0.58823529411764708
 50
180
 51
270
  0
ARC
  8
0
 62
50
  6
CONTINUOUS
 10
-4.5588235294117645
 20
-0.58823529411764708
 40
0.58823529411764708
 50
90
 51
180
  0
ARC
  8
0
 62
50
  6
CONTINUOUS
 10
4.5588235294117645
 20
-0.58823529411764708
 40
0.58823529411764708
 50
0
 51
90
  0
LINE
  8
0
 62
50
  6
CONTINUOUS
 10
-4.8529411764705888
 20
0.58823529411764708
 11
-4.8529411764705888
 21
11.911764705882353
  0
LINE
  8
0
 62
50
  6
CONTINUOUS
 10
-4.5588235294117645
 20
12.205882352941178
 11
-2.0588235294117649
 21
12.205882352941178
  0
LINE
  8
0
 62
50
  6
CONTINUOUS
 10
-1.7647058823529411
 20
11.911764705882353
 11
-1.7647058823529411
 21
10.294117647058824
  0
LINE
  8
0
 62
50
  6
CONTINUOUS
 10
-1.7647058823529411
 20
10.294117647058824
 11
-1.4705882352941178
 21
10.294117647058824
  0
LINE
  8
0
 62
50
  6
CONTINUOUS
 10
-1.4705882352941178
 20
10.294117647058824
 11
-1.4705882352941178
 21
11.911764705882353
  0
LINE
  8
0
 62
50
  6
CONTINUOUS
 10
-2.0588235294117649
 20
12.5
 11
-4.5588235294117645
 21
12.5
  0
LINE
  8
0
 62
50
  6
CONTINUOUS
 10
-5.1470588235294121
 20
11.911764705882353
 11
-5.1470588235294121
 21
0.58823529411764708
  0
LINE
  8
0
 62
50
  6
CONTINUOUS
 10
5.1470588235294121
 20
0.58823529411764708
 11
5.1470588235294121
 21
11.911764705882353
  0
LINE
  8
0
 62
50
  6
CONTINUOUS
 10
4.5588235294117645
 20
12.5
 11
2.0588235294117649
 21
12.5
  0
LINE
  8
0
 62
50
  6
CONTINUOUS
 10
1.4705882352941178
 20
11.911764705882353
 11
1.4705882352941178
 21
10.294117647058824
  0
LINE
  8
0
 62
50
  6
CONTINUOUS
 10
1.4705882352941178
 20
10.294117647058824
 11
1.7647058823529411
 21
10.294117647058824
  0
LINE
  8
0
 62
50
  6
CONTINUOUS
 10
1.7647058823529411
 20
10.294117647058824
 11
1.7647058823529411
 21
11.911764705882353
  0
LINE
  8
0
 62
50
  6
CONTINUOUS
 10
2.0588235294117649
 20
12.205882352941178
 11
4.5588235294117645
 21
12.205882352941178
  0
LINE
  8
0
 62
50
  6
CONTINUOUS
 10
4.8529411764705888
 20
11.911764705882353
 11
4.8529411764705888
 21
0.58823529411764708
  0
LINE
  8
0
 62
50
  6
CONTINUOUS
 10
4.5588235294117645
 20
0.29411764705882354
 11
-4.5588235294117645
 21
0.29411764705882354
  0
ARC
  8
0
 62
50
  6
CONTINUOUS
 10
-4.5588235294117654
 20
0.58823529411764708
 40
0.29411764705882354
 50
180
 51
270
  0
ARC
  8
0
 62
50
  6
CONTINUOUS
 10
-4.5588235294117654
 20
11.911764705882353
 40
0.29411764705882354
 50
90
 51
180
  0
ARC
  8
0
 62
50
  6
CONTINUOUS
 10
4.5588235294117654
 20
11.911764705882353
 40
0.29411764705882354
 50
0
 51
90
  0
ARC
  8
0
 62
50
  6
CONTINUOUS
 10
-2.0588235294117649
 20
11.911764705882353
 40
0.29411764705882354
 50
0
 51
90
  0
ARC
  8
0
 62
50
  6
CONTINUOUS
 10
2.0588235294117649
 20
11.911764705882353
 40
0.29411764705882354
 50
90
 51
180
  0
ARC
  8
0
 62
50
  6
CONTINUOUS
 10
4.5588235294117654
 20
0.58823529411764708
 40
0.29411764705882354
 50
270
 51
0
  0
ARC
  8
0
 62
50
  6
CONTINUOUS
 10
-2.0588235294117649
 20
11.911764705882353
 40
0.58823529411764708
 50
0
 51
90
  0
ARC
  8
0
 62
50
  6
CONTINUOUS
 10
2.0588235294117649
 20
11.911764705882353
 40
0.58823529411764708
 50
90
 51
180
  0
ARC
  8
0
 62
50
  6
CONTINUOUS
 10
4.5588235294117645
 20
11.911764705882353
 40
0.58823529411764708
 50
0
 51
90
  0
ARC
  8
0
 62
50
  6
CONTINUOUS
 10
-4.5588235294117645
 20
11.911764705882353
 40
0.58823529411764708
 50
90
 51
180
  0
ARC
  8
0
 62
50
  6
CONTINUOUS
 10
-4.5588235294117645
 20
0.58823529411764708
 40
0.58823529411764708
 50
180
 51
270
  0
ARC
  8
0
 62
50
  6
CONTINUOUS
 10
4.5588235294117645
 20
0.58823529411764708
 40
0.58823529411764708
 50
270
 51
0
  0
ENDBLK
  0
ENDSEC
  0
SECTION
  2
ENTITIES
  0
INSERT
  8
0
 62
50
  6
CONTINUOUS
  2
3_41_PROFIL_CSD
 10
0
 20
0
 41
1.0
 42
1.0
 50
0.0
  0
ENDSEC
  0
EOF
