  0
SECTION
  2
HEADER
  9
$ACADVER
  1
AC1009
  9
$EXTMIN
 10
-5.544354838709677
 20
-12.5
  9
$EXTMAX
 10
5.544354838709677
 20
12.5
  9
$TEXTSTYLE
  7
STANDARD
  9
$DIMLFAC
 40
1
  9
$REGENMODE
 70
1
  9
$DRAGMODE
 70
2
  9
$DIMASO
 70
1
  9
$LTSCALE
 40
1.0000000000
  0
ENDSEC
  0
SECTION
  2
TABLES
  0
TABLE
  2
LTYPE
 70
1
  0
LTYPE
  2
CONTINUOUS
 70
64
  3
CONTINUOUS
 72
65
 73
0
 40
0.0000000000
  0
ENDTAB
  0
TABLE
  2
LAYER
 70
1
  0
LAYER
  2
0
 70
0
 62
2
  6
CONTINUOUS
  0
ENDTAB
  0
TABLE
  2
STYLE
 70
0
  0
STYLE
  2
Standard
 70
0
 40
0
 41
1
 50
0
 71
0
 42
2.5
  3
txt
  4

  0
ENDTAB
  0
ENDSEC
  0
SECTION
  2
BLOCKS
  0
BLOCK
  8
0
 62
50
  6
CONTINUOUS
  2
3_41_PROFIL_CRD
 70
0
 10
0
 20
0
  0
LINE
  8
0
 62
50
  6
CONTINUOUS
 10
-5.1411290322580641
 20
-0.80645161290322576
 11
-5.1411290322580641
 21
-11.693548387096774
  0
LINE
  8
0
 62
50
  6
CONTINUOUS
 10
-4.7379032258064511
 20
-12.096774193548386
 11
-2.721774193548387
 21
-12.096774193548386
  0
LINE
  8
0
 62
50
  6
CONTINUOUS
 10
-2.318548387096774
 20
-11.693548387096774
 11
-2.318548387096774
 21
-10.887096774193548
  0
LINE
  8
0
 62
50
  6
CONTINUOUS
 10
-2.318548387096774
 20
-10.887096774193548
 11
-1.9153225806451613
 21
-10.887096774193548
  0
LINE
  8
0
 62
50
  6
CONTINUOUS
 10
-1.9153225806451613
 20
-10.887096774193548
 11
-1.9153225806451613
 21
-11.693548387096774
  0
LINE
  8
0
 62
50
  6
CONTINUOUS
 10
-2.721774193548387
 20
-12.5
 11
-4.7379032258064511
 21
-12.5
  0
LINE
  8
0
 62
50
  6
CONTINUOUS
 10
-5.544354838709677
 20
-11.693548387096774
 11
-5.544354838709677
 21
-0.80645161290322576
  0
LINE
  8
0
 62
50
  6
CONTINUOUS
 10
-4.7379032258064511
 20
0
 11
4.7379032258064511
 21
0
  0
LINE
  8
0
 62
50
  6
CONTINUOUS
 10
5.544354838709677
 20
-0.80645161290322576
 11
5.544354838709677
 21
-11.693548387096774
  0
LINE
  8
0
 62
50
  6
CONTINUOUS
 10
4.7379032258064511
 20
-12.5
 11
2.721774193548387
 21
-12.5
  0
LINE
  8
0
 62
50
  6
CONTINUOUS
 10
1.9153225806451613
 20
-11.693548387096774
 11
1.9153225806451613
 21
-10.887096774193548
  0
LINE
  8
0
 62
50
  6
CONTINUOUS
 10
1.9153225806451613
 20
-10.887096774193548
 11
2.318548387096774
 21
-10.887096774193548
  0
LINE
  8
0
 62
50
  6
CONTINUOUS
 10
2.318548387096774
 20
-10.887096774193548
 11
2.318548387096774
 21
-11.693548387096774
  0
LINE
  8
0
 62
50
  6
CONTINUOUS
 10
2.721774193548387
 20
-12.096774193548386
 11
4.7379032258064511
 21
-12.096774193548386
  0
LINE
  8
0
 62
50
  6
CONTINUOUS
 10
5.1411290322580641
 20
-11.693548387096774
 11
5.1411290322580641
 21
-0.80645161290322576
  0
LINE
  8
0
 62
50
  6
CONTINUOUS
 10
4.7379032258064511
 20
-0.40322580645161288
 11
-4.7379032258064511
 21
-0.40322580645161288
  0
ARC
  8
0
 62
50
  6
CONTINUOUS
 10
-4.737903225806452
 20
-0.80645161290322576
 40
0.40322580645161288
 50
90
 51
180
  0
ARC
  8
0
 62
50
  6
CONTINUOUS
 10
-4.737903225806452
 20
-11.693548387096774
 40
0.40322580645161288
 50
180
 51
270
  0
ARC
  8
0
 62
50
  6
CONTINUOUS
 10
4.737903225806452
 20
-11.693548387096774
 40
0.40322580645161288
 50
270
 51
0
  0
ARC
  8
0
 62
50
  6
CONTINUOUS
 10
-2.721774193548387
 20
-11.693548387096774
 40
0.40322580645161288
 50
270
 51
0
  0
ARC
  8
0
 62
50
  6
CONTINUOUS
 10
2.721774193548387
 20
-11.693548387096774
 40
0.40322580645161288
 50
180
 51
270
  0
ARC
  8
0
 62
50
  6
CONTINUOUS
 10
4.737903225806452
 20
-0.80645161290322576
 40
0.40322580645161288
 50
0
 51
90
  0
ARC
  8
0
 62
50
  6
CONTINUOUS
 10
-2.721774193548387
 20
-11.693548387096774
 40
0.80645161290322576
 50
270
 51
0
  0
ARC
  8
0
 62
50
  6
CONTINUOUS
 10
2.721774193548387
 20
-11.693548387096774
 40
0.80645161290322576
 50
180
 51
270
  0
ARC
  8
0
 62
50
  6
CONTINUOUS
 10
4.7379032258064511
 20
-11.693548387096774
 40
0.80645161290322576
 50
270
 51
0
  0
ARC
  8
0
 62
50
  6
CONTINUOUS
 10
-4.7379032258064511
 20
-11.693548387096774
 40
0.80645161290322576
 50
180
 51
270
  0
ARC
  8
0
 62
50
  6
CONTINUOUS
 10
-4.7379032258064511
 20
-0.80645161290322576
 40
0.80645161290322576
 50
90
 51
180
  0
ARC
  8
0
 62
50
  6
CONTINUOUS
 10
4.7379032258064511
 20
-0.80645161290322576
 40
0.80645161290322576
 50
0
 51
90
  0
LINE
  8
0
 62
50
  6
CONTINUOUS
 10
-5.1411290322580641
 20
0.80645161290322576
 11
-5.1411290322580641
 21
11.693548387096774
  0
LINE
  8
0
 62
50
  6
CONTINUOUS
 10
-4.7379032258064511
 20
12.096774193548386
 11
-2.721774193548387
 21
12.096774193548386
  0
LINE
  8
0
 62
50
  6
CONTINUOUS
 10
-2.318548387096774
 20
11.693548387096774
 11
-2.318548387096774
 21
10.887096774193548
  0
LINE
  8
0
 62
50
  6
CONTINUOUS
 10
-2.318548387096774
 20
10.887096774193548
 11
-1.9153225806451613
 21
10.887096774193548
  0
LINE
  8
0
 62
50
  6
CONTINUOUS
 10
-1.9153225806451613
 20
10.887096774193548
 11
-1.9153225806451613
 21
11.693548387096774
  0
LINE
  8
0
 62
50
  6
CONTINUOUS
 10
-2.721774193548387
 20
12.5
 11
-4.7379032258064511
 21
12.5
  0
LINE
  8
0
 62
50
  6
CONTINUOUS
 10
-5.544354838709677
 20
11.693548387096774
 11
-5.544354838709677
 21
0.80645161290322576
  0
LINE
  8
0
 62
50
  6
CONTINUOUS
 10
5.544354838709677
 20
0.80645161290322576
 11
5.544354838709677
 21
11.693548387096774
  0
LINE
  8
0
 62
50
  6
CONTINUOUS
 10
4.7379032258064511
 20
12.5
 11
2.721774193548387
 21
12.5
  0
LINE
  8
0
 62
50
  6
CONTINUOUS
 10
1.9153225806451613
 20
11.693548387096774
 11
1.9153225806451613
 21
10.887096774193548
  0
LINE
  8
0
 62
50
  6
CONTINUOUS
 10
1.9153225806451613
 20
10.887096774193548
 11
2.318548387096774
 21
10.887096774193548
  0
LINE
  8
0
 62
50
  6
CONTINUOUS
 10
2.318548387096774
 20
10.887096774193548
 11
2.318548387096774
 21
11.693548387096774
  0
LINE
  8
0
 62
50
  6
CONTINUOUS
 10
2.721774193548387
 20
12.096774193548386
 11
4.7379032258064511
 21
12.096774193548386
  0
LINE
  8
0
 62
50
  6
CONTINUOUS
 10
5.1411290322580641
 20
11.693548387096774
 11
5.1411290322580641
 21
0.80645161290322576
  0
LINE
  8
0
 62
50
  6
CONTINUOUS
 10
4.7379032258064511
 20
0.40322580645161288
 11
-4.7379032258064511
 21
0.40322580645161288
  0
ARC
  8
0
 62
50
  6
CONTINUOUS
 10
-4.737903225806452
 20
0.80645161290322576
 40
0.40322580645161288
 50
180
 51
270
  0
ARC
  8
0
 62
50
  6
CONTINUOUS
 10
-4.737903225806452
 20
11.693548387096774
 40
0.40322580645161288
 50
90
 51
180
  0
ARC
  8
0
 62
50
  6
CONTINUOUS
 10
4.737903225806452
 20
11.693548387096774
 40
0.40322580645161288
 50
0
 51
90
  0
ARC
  8
0
 62
50
  6
CONTINUOUS
 10
-2.721774193548387
 20
11.693548387096774
 40
0.40322580645161288
 50
0
 51
90
  0
ARC
  8
0
 62
50
  6
CONTINUOUS
 10
2.721774193548387
 20
11.693548387096774
 40
0.40322580645161288
 50
90
 51
180
  0
ARC
  8
0
 62
50
  6
CONTINUOUS
 10
4.737903225806452
 20
0.80645161290322576
 40
0.40322580645161288
 50
270
 51
0
  0
ARC
  8
0
 62
50
  6
CONTINUOUS
 10
-2.721774193548387
 20
11.693548387096774
 40
0.80645161290322576
 50
0
 51
90
  0
ARC
  8
0
 62
50
  6
CONTINUOUS
 10
2.721774193548387
 20
11.693548387096774
 40
0.80645161290322576
 50
90
 51
180
  0
ARC
  8
0
 62
50
  6
CONTINUOUS
 10
4.7379032258064511
 20
11.693548387096774
 40
0.80645161290322576
 50
0
 51
90
  0
ARC
  8
0
 62
50
  6
CONTINUOUS
 10
-4.7379032258064511
 20
11.693548387096774
 40
0.80645161290322576
 50
90
 51
180
  0
ARC
  8
0
 62
50
  6
CONTINUOUS
 10
-4.7379032258064511
 20
0.80645161290322576
 40
0.80645161290322576
 50
180
 51
270
  0
ARC
  8
0
 62
50
  6
CONTINUOUS
 10
4.7379032258064511
 20
0.80645161290322576
 40
0.80645161290322576
 50
270
 51
0
  0
ENDBLK
  0
ENDSEC
  0
SECTION
  2
ENTITIES
  0
INSERT
  8
0
 62
50
  6
CONTINUOUS
  2
3_41_PROFIL_CRD
 10
0
 20
0
 41
1.0
 42
1.0
 50
0.0
  0
ENDSEC
  0
EOF
