  0
SECTION
  2
HEADER
  9
$ACADVER
  1
AC1009
  9
$EXTMIN
 10
-6.25
 20
-12.5
  9
$EXTMAX
 10
6.25
 20
12.5
  9
$TEXTSTYLE
  7
STANDARD
  9
$DIMLFAC
 40
1
  9
$REGENMODE
 70
1
  9
$DRAGMODE
 70
2
  9
$DIMASO
 70
1
  9
$LTSCALE
 40
1.0000000000
  0
ENDSEC
  0
SECTION
  2
TABLES
  0
TABLE
  2
LTYPE
 70
1
  0
LTYPE
  2
CONTINUOUS
 70
64
  3
CONTINUOUS
 72
65
 73
0
 40
0.0000000000
  0
ENDTAB
  0
TABLE
  2
LAYER
 70
1
  0
LAYER
  2
0
 70
0
 62
2
  6
CONTINUOUS
  0
ENDTAB
  0
TABLE
  2
STYLE
 70
0
  0
STYLE
  2
Standard
 70
0
 40
0
 41
1
 50
0
 71
0
 42
2.5
  3
txt
  4

  0
ENDTAB
  0
ENDSEC
  0
SECTION
  2
BLOCKS
  0
BLOCK
  8
0
 62
50
  6
CONTINUOUS
  2
3_41_PROFIL_CD
 70
0
 10
0
 20
0
  0
LINE
  8
0
 62
50
  6
CONTINUOUS
 10
-2.3214285714285716
 20
-12.5
 11
-4.8214285714285712
 21
-12.5
  0
LINE
  8
0
 62
50
  6
CONTINUOUS
 10
-6.25
 20
-11.071428571428571
 11
-6.25
 21
-1.4285714285714286
  0
LINE
  8
0
 62
50
  6
CONTINUOUS
 10
-4.8214285714285712
 20
0
 11
4.8214285714285712
 21
0
  0
LINE
  8
0
 62
50
  6
CONTINUOUS
 10
6.25
 20
-1.4285714285714286
 11
6.25
 21
-11.071428571428571
  0
LINE
  8
0
 62
50
  6
CONTINUOUS
 10
4.8214285714285712
 20
-12.5
 11
2.3214285714285716
 21
-12.5
  0
LINE
  8
0
 62
50
  6
CONTINUOUS
 10
2.3214285714285716
 20
-12.5
 11
2.3214285714285716
 21
-11.785714285714286
  0
LINE
  8
0
 62
50
  6
CONTINUOUS
 10
2.3214285714285716
 20
-11.785714285714286
 11
4.8214285714285712
 21
-11.785714285714286
  0
LINE
  8
0
 62
50
  6
CONTINUOUS
 10
5.5357142857142856
 20
-11.071428571428571
 11
5.5357142857142856
 21
-1.4285714285714286
  0
LINE
  8
0
 62
50
  6
CONTINUOUS
 10
4.8214285714285712
 20
-0.7142857142857143
 11
-4.8214285714285712
 21
-0.7142857142857143
  0
LINE
  8
0
 62
50
  6
CONTINUOUS
 10
-5.5357142857142856
 20
-1.4285714285714286
 11
-5.5357142857142856
 21
-11.071428571428571
  0
LINE
  8
0
 62
50
  6
CONTINUOUS
 10
-4.8214285714285712
 20
-11.785714285714286
 11
-2.3214285714285716
 21
-11.785714285714286
  0
LINE
  8
0
 62
50
  6
CONTINUOUS
 10
-2.3214285714285716
 20
-11.785714285714286
 11
-2.3214285714285716
 21
-12.5
  0
ARC
  8
0
 62
50
  6
CONTINUOUS
 10
-4.8214285714285712
 20
-11.071428571428571
 40
0.7142857142857143
 50
180
 51
270
  0
ARC
  8
0
 62
50
  6
CONTINUOUS
 10
4.8214285714285712
 20
-11.071428571428571
 40
0.7142857142857143
 50
270
 51
0
  0
ARC
  8
0
 62
50
  6
CONTINUOUS
 10
4.8214285714285712
 20
-1.4285714285714286
 40
0.7142857142857143
 50
0
 51
90
  0
ARC
  8
0
 62
50
  6
CONTINUOUS
 10
-4.8214285714285712
 20
-1.4285714285714286
 40
0.7142857142857143
 50
90
 51
180
  0
ARC
  8
0
 62
50
  6
CONTINUOUS
 10
-4.8214285714285712
 20
-11.071428571428571
 40
1.4285714285714286
 50
180
 51
270
  0
ARC
  8
0
 62
50
  6
CONTINUOUS
 10
4.8214285714285712
 20
-11.071428571428571
 40
1.4285714285714286
 50
270
 51
0
  0
ARC
  8
0
 62
50
  6
CONTINUOUS
 10
-4.8214285714285712
 20
-1.4285714285714286
 40
1.4285714285714286
 50
90
 51
180
  0
ARC
  8
0
 62
50
  6
CONTINUOUS
 10
4.8214285714285712
 20
-1.4285714285714286
 40
1.4285714285714286
 50
0
 51
90
  0
LINE
  8
0
 62
50
  6
CONTINUOUS
 10
-2.3214285714285716
 20
12.5
 11
-4.8214285714285712
 21
12.5
  0
LINE
  8
0
 62
50
  6
CONTINUOUS
 10
-6.25
 20
11.071428571428571
 11
-6.25
 21
1.4285714285714286
  0
LINE
  8
0
 62
50
  6
CONTINUOUS
 10
6.25
 20
1.4285714285714286
 11
6.25
 21
11.071428571428571
  0
LINE
  8
0
 62
50
  6
CONTINUOUS
 10
4.8214285714285712
 20
12.5
 11
2.3214285714285716
 21
12.5
  0
LINE
  8
0
 62
50
  6
CONTINUOUS
 10
2.3214285714285716
 20
12.5
 11
2.3214285714285716
 21
11.785714285714286
  0
LINE
  8
0
 62
50
  6
CONTINUOUS
 10
2.3214285714285716
 20
11.785714285714286
 11
4.8214285714285712
 21
11.785714285714286
  0
LINE
  8
0
 62
50
  6
CONTINUOUS
 10
5.5357142857142856
 20
11.071428571428571
 11
5.5357142857142856
 21
1.4285714285714286
  0
LINE
  8
0
 62
50
  6
CONTINUOUS
 10
4.8214285714285712
 20
0.7142857142857143
 11
-4.8214285714285712
 21
0.7142857142857143
  0
LINE
  8
0
 62
50
  6
CONTINUOUS
 10
-5.5357142857142856
 20
1.4285714285714286
 11
-5.5357142857142856
 21
11.071428571428571
  0
LINE
  8
0
 62
50
  6
CONTINUOUS
 10
-4.8214285714285712
 20
11.785714285714286
 11
-2.3214285714285716
 21
11.785714285714286
  0
LINE
  8
0
 62
50
  6
CONTINUOUS
 10
-2.3214285714285716
 20
11.785714285714286
 11
-2.3214285714285716
 21
12.5
  0
ARC
  8
0
 62
50
  6
CONTINUOUS
 10
-4.8214285714285712
 20
11.071428571428571
 40
0.7142857142857143
 50
90
 51
180
  0
ARC
  8
0
 62
50
  6
CONTINUOUS
 10
4.8214285714285712
 20
11.071428571428571
 40
0.7142857142857143
 50
0
 51
90
  0
ARC
  8
0
 62
50
  6
CONTINUOUS
 10
4.8214285714285712
 20
1.4285714285714286
 40
0.7142857142857143
 50
270
 51
0
  0
ARC
  8
0
 62
50
  6
CONTINUOUS
 10
-4.8214285714285712
 20
1.4285714285714286
 40
0.7142857142857143
 50
180
 51
270
  0
ARC
  8
0
 62
50
  6
CONTINUOUS
 10
-4.8214285714285712
 20
11.071428571428571
 40
1.4285714285714286
 50
90
 51
180
  0
ARC
  8
0
 62
50
  6
CONTINUOUS
 10
4.8214285714285712
 20
11.071428571428571
 40
1.4285714285714286
 50
0
 51
90
  0
ARC
  8
0
 62
50
  6
CONTINUOUS
 10
-4.8214285714285712
 20
1.4285714285714286
 40
1.4285714285714286
 50
180
 51
270
  0
ARC
  8
0
 62
50
  6
CONTINUOUS
 10
4.8214285714285712
 20
1.4285714285714286
 40
1.4285714285714286
 50
270
 51
0
  0
ENDBLK
  0
ENDSEC
  0
SECTION
  2
ENTITIES
  0
INSERT
  8
0
 62
50
  6
CONTINUOUS
  2
3_41_PROFIL_CD
 10
0
 20
0
 41
1.0
 42
1.0
 50
0.0
  0
ENDSEC
  0
EOF
