  0
SECTION
  2
HEADER
  9
$ACADVER
  1
AC1009
  9
$EXTMIN
 10
-11.184210526315789
 20
-12.499999999999998
  9
$EXTMAX
 10
11.184210526315789
 20
12.499999999999998
  9
$TEXTSTYLE
  7
STANDARD
  9
$DIMLFAC
 40
1
  9
$REGENMODE
 70
1
  9
$DRAGMODE
 70
2
  9
$DIMASO
 70
1
  9
$LTSCALE
 40
1.0000000000
  0
ENDSEC
  0
SECTION
  2
TABLES
  0
TABLE
  2
LTYPE
 70
1
  0
LTYPE
  2
CONTINUOUS
 70
64
  3
CONTINUOUS
 72
65
 73
0
 40
0.0000000000
  0
ENDTAB
  0
TABLE
  2
LAYER
 70
1
  0
LAYER
  2
0
 70
0
 62
2
  6
CONTINUOUS
  0
ENDTAB
  0
TABLE
  2
STYLE
 70
0
  0
STYLE
  2
Standard
 70
0
 40
0
 41
1
 50
0
 71
0
 42
2.5
  3
txt
  4

  0
ENDTAB
  0
ENDSEC
  0
SECTION
  2
BLOCKS
  0
BLOCK
  8
0
 62
50
  6
CONTINUOUS
  2
3_41_PROFIL_CKD
 70
0
 10
0
 20
0
  0
LINE
  8
0
 62
50
  6
CONTINUOUS
 10
-5.5921052631578938
 20
-12.499999999999998
 11
-9.2105263157894726
 21
-12.499999999999998
  0
LINE
  8
0
 62
50
  6
CONTINUOUS
 10
-11.184210526315788
 20
-10.526315789473683
 11
-11.184210526315788
 21
-1.9736842105263155
  0
LINE
  8
0
 62
50
  6
CONTINUOUS
 10
-9.2105263157894726
 20
0
 11
9.2105263157894726
 21
0
  0
LINE
  8
0
 62
50
  6
CONTINUOUS
 10
11.184210526315788
 20
-1.9736842105263155
 11
11.184210526315788
 21
-10.526315789473683
  0
LINE
  8
0
 62
50
  6
CONTINUOUS
 10
9.2105263157894726
 20
-12.499999999999998
 11
5.5921052631578938
 21
-12.499999999999998
  0
LINE
  8
0
 62
50
  6
CONTINUOUS
 10
5.5921052631578938
 20
-12.499999999999998
 11
5.5921052631578938
 21
-11.184210526315788
  0
LINE
  8
0
 62
50
  6
CONTINUOUS
 10
5.5921052631578938
 20
-11.184210526315788
 11
9.2105263157894726
 21
-11.184210526315788
  0
LINE
  8
0
 62
50
  6
CONTINUOUS
 10
9.8684210526315788
 20
-10.526315789473683
 11
9.8684210526315788
 21
-1.9736842105263155
  0
LINE
  8
0
 62
50
  6
CONTINUOUS
 10
9.2105263157894726
 20
-1.3157894736842104
 11
-9.2105263157894726
 21
-1.3157894736842104
  0
LINE
  8
0
 62
50
  6
CONTINUOUS
 10
-9.8684210526315788
 20
-1.9736842105263155
 11
-9.8684210526315788
 21
-10.526315789473683
  0
LINE
  8
0
 62
50
  6
CONTINUOUS
 10
-9.2105263157894726
 20
-11.184210526315788
 11
-5.5921052631578938
 21
-11.184210526315788
  0
LINE
  8
0
 62
50
  6
CONTINUOUS
 10
-5.5921052631578938
 20
-11.184210526315788
 11
-5.5921052631578938
 21
-12.499999999999998
  0
LINE
  8
0
 62
50
  6
CONTINUOUS
 10
-5.5921052631578938
 20
12.499999999999998
 11
-9.2105263157894726
 21
12.499999999999998
  0
LINE
  8
0
 62
50
  6
CONTINUOUS
 10
-11.184210526315788
 20
10.526315789473683
 11
-11.184210526315788
 21
1.9736842105263155
  0
LINE
  8
0
 62
50
  6
CONTINUOUS
 10
11.184210526315788
 20
1.9736842105263155
 11
11.184210526315788
 21
10.526315789473683
  0
LINE
  8
0
 62
50
  6
CONTINUOUS
 10
9.2105263157894726
 20
12.499999999999998
 11
5.5921052631578938
 21
12.499999999999998
  0
LINE
  8
0
 62
50
  6
CONTINUOUS
 10
5.5921052631578938
 20
12.499999999999998
 11
5.5921052631578938
 21
11.184210526315788
  0
LINE
  8
0
 62
50
  6
CONTINUOUS
 10
5.5921052631578938
 20
11.184210526315788
 11
9.2105263157894726
 21
11.184210526315788
  0
LINE
  8
0
 62
50
  6
CONTINUOUS
 10
9.8684210526315788
 20
10.526315789473683
 11
9.8684210526315788
 21
1.9736842105263155
  0
LINE
  8
0
 62
50
  6
CONTINUOUS
 10
9.2105263157894726
 20
1.3157894736842104
 11
-9.2105263157894726
 21
1.3157894736842104
  0
LINE
  8
0
 62
50
  6
CONTINUOUS
 10
-9.8684210526315788
 20
1.9736842105263155
 11
-9.8684210526315788
 21
10.526315789473683
  0
LINE
  8
0
 62
50
  6
CONTINUOUS
 10
-9.2105263157894726
 20
11.184210526315788
 11
-5.5921052631578938
 21
11.184210526315788
  0
LINE
  8
0
 62
50
  6
CONTINUOUS
 10
-5.5921052631578938
 20
11.184210526315788
 11
-5.5921052631578938
 21
12.499999999999998
  0
ARC
  8
0
 62
50
  6
CONTINUOUS
 10
-9.2105263157894743
 20
1.9736842105263155
 40
0.6578947368421052
 50
180
 51
270
  0
ARC
  8
0
 62
50
  6
CONTINUOUS
 10
9.2105263157894743
 20
1.9736842105263155
 40
0.6578947368421052
 50
270
 51
0
  0
ARC
  8
0
 62
50
  6
CONTINUOUS
 10
-9.2105263157894743
 20
10.526315789473683
 40
0.6578947368421052
 50
90
 51
180
  0
ARC
  8
0
 62
50
  6
CONTINUOUS
 10
9.2105263157894743
 20
10.526315789473683
 40
0.6578947368421052
 50
0
 51
90
  0
ARC
  8
0
 62
50
  6
CONTINUOUS
 10
-9.2105263157894743
 20
-1.9736842105263155
 40
0.6578947368421052
 50
90
 51
180
  0
ARC
  8
0
 62
50
  6
CONTINUOUS
 10
9.2105263157894743
 20
-1.9736842105263155
 40
0.6578947368421052
 50
0
 51
90
  0
ARC
  8
0
 62
50
  6
CONTINUOUS
 10
-9.2105263157894743
 20
-10.526315789473683
 40
0.6578947368421052
 50
180
 51
270
  0
ARC
  8
0
 62
50
  6
CONTINUOUS
 10
9.2105263157894743
 20
-10.526315789473683
 40
0.6578947368421052
 50
270
 51
0
  0
ARC
  8
0
 62
50
  6
CONTINUOUS
 10
-9.2105263157894743
 20
-10.526315789473683
 40
1.9736842105263155
 50
180
 51
270
  0
ARC
  8
0
 62
50
  6
CONTINUOUS
 10
9.2105263157894743
 20
-10.526315789473683
 40
1.9736842105263155
 50
270
 51
0
  0
ARC
  8
0
 62
50
  6
CONTINUOUS
 10
-9.2105263157894743
 20
-1.9736842105263155
 40
1.9736842105263155
 50
90
 51
180
  0
ARC
  8
0
 62
50
  6
CONTINUOUS
 10
9.2105263157894743
 20
-1.9736842105263155
 40
1.9736842105263155
 50
0
 51
90
  0
ARC
  8
0
 62
50
  6
CONTINUOUS
 10
-9.2105263157894743
 20
1.9736842105263155
 40
1.9736842105263155
 50
180
 51
270
  0
ARC
  8
0
 62
50
  6
CONTINUOUS
 10
9.2105263157894743
 20
1.9736842105263155
 40
1.9736842105263155
 50
270
 51
0
  0
ARC
  8
0
 62
50
  6
CONTINUOUS
 10
-9.2105263157894743
 20
10.526315789473683
 40
1.9736842105263155
 50
90
 51
180
  0
ARC
  8
0
 62
50
  6
CONTINUOUS
 10
9.2105263157894743
 20
10.526315789473683
 40
1.9736842105263155
 50
0
 51
90
  0
ENDBLK
  0
ENDSEC
  0
SECTION
  2
ENTITIES
  0
INSERT
  8
0
 62
50
  6
CONTINUOUS
  2
3_41_PROFIL_CKD
 10
0
 20
0
 41
1.0
 42
1.0
 50
0.0
  0
ENDSEC
  0
EOF
