  0
SECTION
  2
HEADER
  9
$ACADVER
  1
AC1009
  9
$EXTMIN
 10
-12.5
 20
-7.3529411764705888
  9
$EXTMAX
 10
12.5
 20
9.9019607843137276
  9
$TEXTSTYLE
  7
STANDARD
  9
$DIMLFAC
 40
1
  9
$REGENMODE
 70
1
  9
$DRAGMODE
 70
2
  9
$DIMASO
 70
1
  9
$LTSCALE
 40
1.0000000000
  0
ENDSEC
  0
SECTION
  2
TABLES
  0
TABLE
  2
LTYPE
 70
2
  0
LTYPE
  2
CONTINUOUS
 70
64
  3
CONTINUOUS
 72
65
 73
0
 40
0.0000000000
  0
LTYPE
  2
DASHDOT
 70
64
  3
DASHDOT
 72
65
 73
4
 40
1.0000000000
 49
0.5000000000
 49
-0.2500000000
 49
0.0000000000
 49
-0.2500000000
  0
ENDTAB
  0
TABLE
  2
LAYER
 70
1
  0
LAYER
  2
0
 70
0
 62
2
  6
CONTINUOUS
  0
ENDTAB
  0
TABLE
  2
STYLE
 70
0
  0
STYLE
  2
Standard
 70
0
 40
0
 41
1
 50
0
 71
0
 42
2.5
  3
txt
  4

  0
ENDTAB
  0
ENDSEC
  0
SECTION
  2
BLOCKS
  0
BLOCK
  8
0
 62
50
  6
CONTINUOUS
  2
3_40_PROFIL_CS
 70
0
 10
1.4767168545206451e-089
 20
-4.9019607843137258
  0
LINE
  8
0
 62
50
  6
CONTINUOUS
 10
-1.8872549019607845
 20
-6.5196078431372557
 11
1.8872549019607845
 21
-6.5196078431372557
  0
LINE
  8
0
 62
50
  6
CONTINUOUS
 10
1.9852941176470591
 20
-6.4215686274509816
 11
1.9852941176470591
 21
-5.5882352941176467
  0
LINE
  8
0
 62
50
  6
CONTINUOUS
 10
1.8872549019607845
 20
-5.4901960784313726
 11
1.3480392156862746
 21
-5.4901960784313726
  0
LINE
  8
0
 62
50
  6
CONTINUOUS
 10
1.3480392156862746
 20
-5.4901960784313726
 11
1.3480392156862746
 21
-5.3921568627450984
  0
LINE
  8
0
 62
50
  6
CONTINUOUS
 10
1.3480392156862746
 20
-5.3921568627450984
 11
1.8872549019607845
 21
-5.3921568627450984
  0
LINE
  8
0
 62
50
  6
CONTINUOUS
 10
2.0833333333333335
 20
-5.5882352941176467
 11
2.0833333333333335
 21
-6.4215686274509816
  0
LINE
  8
0
 62
50
  6
CONTINUOUS
 10
1.8872549019607845
 20
-6.6176470588235299
 11
-1.8872549019607845
 21
-6.6176470588235299
  0
LINE
  8
0
 62
50
  6
CONTINUOUS
 10
-2.0833333333333335
 20
-6.4215686274509816
 11
-2.0833333333333335
 21
-3.3823529411764719
  0
LINE
  8
0
 62
50
  6
CONTINUOUS
 10
-1.8872549019607845
 20
-3.1862745098039227
 11
1.8872549019607845
 21
-3.1862745098039214
  0
LINE
  8
0
 62
50
  6
CONTINUOUS
 10
2.0833333333333335
 20
-3.3823529411764701
 11
2.0833333333333335
 21
-4.215686274509804
  0
LINE
  8
0
 62
50
  6
CONTINUOUS
 10
1.8872549019607845
 20
-4.4117647058823524
 11
1.3480392156862746
 21
-4.4117647058823524
  0
LINE
  8
0
 62
50
  6
CONTINUOUS
 10
1.3480392156862746
 20
-4.4117647058823524
 11
1.3480392156862746
 21
-4.3137254901960782
  0
LINE
  8
0
 62
50
  6
CONTINUOUS
 10
1.3480392156862746
 20
-4.3137254901960782
 11
1.8872549019607845
 21
-4.3137254901960782
  0
LINE
  8
0
 62
50
  6
CONTINUOUS
 10
1.9852941176470591
 20
-4.215686274509804
 11
1.9852941176470591
 21
-3.3823529411764701
  0
LINE
  8
0
 62
50
  6
CONTINUOUS
 10
1.8872549019607845
 20
-3.284313725490196
 11
-1.8872549019607845
 21
-3.2843137254901973
  0
LINE
  8
0
 62
50
  6
CONTINUOUS
 10
-1.9852941176470591
 20
-3.3823529411764719
 11
-1.9852941176470591
 21
-6.4215686274509816
  0
ARC
  8
0
 62
50
  6
CONTINUOUS
 10
1.8872549019607845
 20
-6.4215686274509816
 40
0.098039215686274522
 50
270
 51
0
  0
ARC
  8
0
 62
50
  6
CONTINUOUS
 10
1.8872549019607845
 20
-5.5882352941176467
 40
0.098039215686274522
 50
0
 51
90
  0
ARC
  8
0
 62
50
  6
CONTINUOUS
 10
-1.8872549019607845
 20
-6.4215686274509816
 40
0.098039215686274522
 50
180
 51
270
  0
ARC
  8
0
 62
50
  6
CONTINUOUS
 10
-1.8872549019607845
 20
-3.3823529411764719
 40
0.098039215686274522
 50
90
 51
180
  0
ARC
  8
0
 62
50
  6
CONTINUOUS
 10
1.8872549019607845
 20
-3.3823529411764701
 40
0.098039215686274522
 50
0
 51
90
  0
ARC
  8
0
 62
50
  6
CONTINUOUS
 10
1.8872549019607845
 20
-4.215686274509804
 40
0.098039215686274522
 50
270
 51
0
  0
ARC
  8
0
 62
50
  6
CONTINUOUS
 10
1.8872549019607845
 20
-4.215686274509804
 40
0.19607843137254904
 50
270
 51
0
  0
ARC
  8
0
 62
50
  6
CONTINUOUS
 10
1.8872549019607845
 20
-5.5882352941176467
 40
0.19607843137254904
 50
0
 51
90
  0
ARC
  8
0
 62
50
  6
CONTINUOUS
 10
1.8872549019607845
 20
-6.4215686274509816
 40
0.19607843137254904
 50
270
 51
0
  0
ARC
  8
0
 62
50
  6
CONTINUOUS
 10
-1.8872549019607845
 20
-6.4215686274509816
 40
0.19607843137254904
 50
180
 51
270
  0
ARC
  8
0
 62
50
  6
CONTINUOUS
 10
-1.8872549019607845
 20
-3.3823529411764719
 40
0.19607843137254904
 50
90
 51
180
  0
ARC
  8
0
 62
50
  6
CONTINUOUS
 10
1.8872549019607845
 20
-3.3823529411764701
 40
0.19607843137254904
 50
0
 51
90
  0
ENDBLK
  0
BLOCK
  8
0
 62
5
  6
DASHDOT
  2
TELL_1
 70
0
 10
1.709071169305108e-089
 20
-4.9019607843137258
  0
LINE
  8
0
 62
50
  6
CONTINUOUS
 10
5.1470588235294121
 20
-2.4509803921568629
 11
5.1470588235294121
 21
-7.3529411764705888
  0
LINE
  8
0
 62
50
  6
CONTINUOUS
 10
5.1470588235294121
 20
-7.3529411764705888
 11
-5.1470588235294121
 21
-7.3529411764705888
  0
LINE
  8
0
 62
50
  6
CONTINUOUS
 10
-5.1470588235294121
 20
-7.3529411764705888
 11
-5.1470588235294121
 21
-2.4509803921568629
  0
LINE
  8
0
 62
50
  6
CONTINUOUS
 10
-5.1470588235294121
 20
-2.4509803921568629
 11
5.1470588235294121
 21
-2.4509803921568629
  0
INSERT
  8
0
 62
50
  6
CONTINUOUS
  2
3_40_PROFIL_CS
 10
1.4767168545206451e-089
 20
-4.9019607843137258
 41
1.0
 42
1.0
 50
0.0
  0
ARC
  8
0
 62
50
  6
CONTINUOUS
 10
-3.2843137254901964
 20
-4.9019607843137258
 40
0.34313725490196084
 50
270
 51
90
  0
LINE
  8
0
 62
50
  6
CONTINUOUS
 10
-3.2843137254901964
 20
-5.2450980392156872
 11
-4.0686274509803928
 21
-5.2450980392156872
  0
ARC
  8
0
 62
50
  6
CONTINUOUS
 10
-4.0686274509803928
 20
-4.9019607843137258
 40
0.34313725490196084
 50
90
 51
270
  0
LINE
  8
0
 62
50
  6
CONTINUOUS
 10
-4.0686274509803928
 20
-4.5588235294117654
 11
-3.2843137254901964
 21
-4.5588235294117654
  0
LINE
  8
0
 62
5
  6
DASHDOT
 10
1.1747574438149116e-089
 20
-5.3431372549019613
 11
1.1747574438149116e-089
 21
-4.4607843137254903
  0
LINE
  8
0
 62
5
  6
DASHDOT
 10
-3.6764705882352944
 20
-5.3431372549019613
 11
-3.6764705882352944
 21
-4.4607843137254903
  0
ARC
  8
0
 62
50
  6
CONTINUOUS
 10
3.2843137254901964
 20
-4.9019607843137258
 40
0.34313725490196084
 50
90
 51
270
  0
LINE
  8
0
 62
50
  6
CONTINUOUS
 10
3.2843137254901964
 20
-5.2450980392156872
 11
4.0686274509803928
 21
-5.2450980392156872
  0
ARC
  8
0
 62
50
  6
CONTINUOUS
 10
4.0686274509803928
 20
-4.9019607843137258
 40
0.34313725490196084
 50
270
 51
90
  0
LINE
  8
0
 62
50
  6
CONTINUOUS
 10
4.0686274509803928
 20
-4.5588235294117654
 11
3.2843137254901964
 21
-4.5588235294117654
  0
LINE
  8
0
 62
5
  6
DASHDOT
 10
3.6764705882352944
 20
-5.3431372549019613
 11
3.6764705882352944
 21
-4.4607843137254903
  0
LINE
  8
0
 62
5
  6
DASHDOT
 10
-5.2450980392156872
 20
-4.9019607843137258
 11
5.2450980392156872
 21
-4.9019607843137258
  0
ENDBLK
  0
BLOCK
  8
0
 62
5
  6
DASHDOT
  2
TELL_2
 70
0
 10
-10.049019607843139
 20
0
  0
LINE
  8
0
 62
50
  6
CONTINUOUS
 10
-7.598039215686275
 20
0.49019607843137258
 11
-7.598039215686275
 21
0
  0
LINE
  8
0
 62
50
  6
CONTINUOUS
 10
-7.598039215686275
 20
0
 11
-12.5
 21
0
  0
LINE
  8
0
 62
50
  6
CONTINUOUS
 10
-12.5
 20
0
 11
-12.5
 21
0.49019607843137258
  0
LINE
  8
0
 62
50
  6
CONTINUOUS
 10
-12.5
 20
0.49019607843137258
 11
-7.598039215686275
 21
0.49019607843137258
  0
LINE
  8
0
 62
50
  6
CONTINUOUS
 10
-11.764705882352942
 20
0.49019607843137258
 11
-11.764705882352942
 21
9.8039215686274517
  0
LINE
  8
0
 62
50
  6
CONTINUOUS
 10
-11.764705882352942
 20
9.8039215686274517
 11
-8.3333333333333357
 21
9.8039215686274517
  0
LINE
  8
0
 62
50
  6
CONTINUOUS
 10
-8.3333333333333357
 20
9.8039215686274517
 11
-8.3333333333333357
 21
0.49019607843137258
  0
LINE
  8
0
 62
50
  6
CONTINUOUS
 10
-10.539215686274511
 20
0.49019607843137258
 11
-10.539215686274511
 21
9.8039215686274517
  0
LINE
  8
0
 62
50
  6
CONTINUOUS
 10
-9.5588235294117663
 20
0.49019607843137258
 11
-9.5588235294117663
 21
9.8039215686274517
  0
LINE
  8
0
 62
5
  6
CONTINUOUS
 10
-11.568627450980394
 20
0.58823529411764719
 11
-11.568627450980394
 21
9.7058823529411775
  0
LINE
  8
0
 62
5
  6
CONTINUOUS
 10
-10.73529411764706
 20
0.58823529411764719
 11
-10.73529411764706
 21
9.7058823529411775
  0
LINE
  8
0
 62
5
  6
CONTINUOUS
 10
-9.3627450980392162
 20
0.58823529411764719
 11
-9.3627450980392162
 21
9.7058823529411775
  0
LINE
  8
0
 62
5
  6
CONTINUOUS
 10
-8.529411764705884
 20
0.58823529411764719
 11
-8.529411764705884
 21
9.7058823529411775
  0
LINE
  8
0
 62
5
  6
DASHDOT
 10
-10.049019607843139
 20
-0.098039215686274522
 11
-10.049019607843139
 21
9.9019607843137276
  0
ENDBLK
  0
BLOCK
  8
0
 62
5
  6
DASHDOT
  2
TELL_3
 70
0
 10
10.049019607843139
 20
0
  0
LINE
  8
0
 62
50
  6
CONTINUOUS
 10
12.5
 20
0.49019607843137258
 11
12.5
 21
0
  0
LINE
  8
0
 62
50
  6
CONTINUOUS
 10
12.5
 20
0
 11
7.598039215686275
 21
0
  0
LINE
  8
0
 62
50
  6
CONTINUOUS
 10
7.598039215686275
 20
0
 11
7.598039215686275
 21
0.49019607843137258
  0
LINE
  8
0
 62
50
  6
CONTINUOUS
 10
7.598039215686275
 20
0.49019607843137258
 11
12.5
 21
0.49019607843137258
  0
LINE
  8
0
 62
50
  6
CONTINUOUS
 10
8.3333333333333357
 20
0.49019607843137258
 11
8.3333333333333357
 21
9.8039215686274517
  0
LINE
  8
0
 62
50
  6
CONTINUOUS
 10
8.3333333333333357
 20
9.8039215686274517
 11
11.764705882352942
 21
9.8039215686274517
  0
LINE
  8
0
 62
50
  6
CONTINUOUS
 10
11.764705882352942
 20
9.8039215686274517
 11
11.764705882352942
 21
0.49019607843137258
  0
LINE
  8
0
 62
5
  6
CONTINUOUS
 10
8.529411764705884
 20
0.58823529411764719
 11
8.529411764705884
 21
9.7058823529411775
  0
LINE
  8
0
 62
5
  6
CONTINUOUS
 10
11.568627450980394
 20
0.58823529411764719
 11
11.568627450980394
 21
9.7058823529411775
  0
LINE
  8
0
 62
5
  6
DASHDOT
 10
10.049019607843139
 20
-0.098039215686274522
 11
10.049019607843139
 21
9.9019607843137276
  0
ENDBLK
  0
BLOCK
  8
0
 62
5
  6
DASHDOT
  2
3_60_CSA_L_200MM__21_2_-
 70
0
 10
0
 20
0
  0
LINE
  8
0
 62
50
  6
CONTINUOUS
 10
-5.1470588235294121
 20
0
 11
-5.1470588235294121
 21
0.49019607843137258
  0
LINE
  8
0
 62
50
  6
CONTINUOUS
 10
-5.1470588235294121
 20
0.49019607843137258
 11
5.1470588235294121
 21
0.49019607843137258
  0
LINE
  8
0
 62
50
  6
CONTINUOUS
 10
5.1470588235294121
 20
0.49019607843137258
 11
5.1470588235294121
 21
0
  0
LINE
  8
0
 62
50
  6
CONTINUOUS
 10
5.1470588235294121
 20
0
 11
-5.1470588235294121
 21
0
  0
LINE
  8
0
 62
5
  6
DASHDOT
 10
-3.6764705882352944
 20
-0.098039215686274522
 11
-3.6764705882352944
 21
0.58823529411764719
  0
LINE
  8
0
 62
5
  6
DASHDOT
 10
3.6764705882352944
 20
-0.098039215686274522
 11
3.6764705882352944
 21
0.58823529411764719
  0
LINE
  8
0
 62
50
  6
CONTINUOUS
 10
-2.0833333333333335
 20
0.49019607843137258
 11
-2.0833333333333335
 21
9.8039215686274517
  0
LINE
  8
0
 62
50
  6
CONTINUOUS
 10
-2.0833333333333335
 20
9.8039215686274517
 11
2.0833333333333335
 21
9.8039215686274517
  0
LINE
  8
0
 62
50
  6
CONTINUOUS
 10
2.0833333333333335
 20
9.8039215686274517
 11
2.0833333333333335
 21
0.49019607843137258
  0
LINE
  8
0
 62
5
  6
CONTINUOUS
 10
-1.8872549019607845
 20
0.58823529411764719
 11
-1.8872549019607845
 21
9.7058823529411775
  0
LINE
  8
0
 62
5
  6
CONTINUOUS
 10
1.8872549019607845
 20
0.58823529411764719
 11
1.8872549019607845
 21
9.7058823529411775
  0
LINE
  8
0
 62
5
  6
DASHDOT
 10
0
 20
-0.098039215686274522
 11
0
 21
9.9019607843137276
  0
ENDBLK
  0
BLOCK
  8
0
 62
50
  6
CONTINUOUS
  2
FIXATIOND02
 70
0
 10
0
 20
0
  0
INSERT
  8
0
 62
5
  6
DASHDOT
  2
TELL_1
 10
1.709071169305108e-089
 20
-4.9019607843137258
 41
1.0
 42
1.0
 50
0.0
  0
INSERT
  8
0
 62
5
  6
DASHDOT
  2
TELL_2
 10
-10.049019607843139
 20
0
 41
1.0
 42
1.0
 50
0.0
  0
INSERT
  8
0
 62
5
  6
DASHDOT
  2
TELL_3
 10
10.049019607843139
 20
0
 41
1.0
 42
1.0
 50
0.0
  0
INSERT
  8
0
 62
5
  6
DASHDOT
  2
3_60_CSA_L_200MM__21_2_-
 10
0
 20
0
 41
1.0
 42
1.0
 50
0.0
  0
ENDBLK
  0
ENDSEC
  0
SECTION
  2
ENTITIES
  0
INSERT
  8
0
 62
50
  6
CONTINUOUS
  2
FIXATIOND02
 10
0
 20
0
 41
1.0
 42
1.0
 50
0.0
  0
ENDSEC
  0
EOF
