  0
SECTION
  2
HEADER
  9
$ACADVER
  1
AC1009
  9
$EXTMIN
 10
-12.5
 20
-7.0652173913043486
  9
$EXTMAX
 10
12.5
 20
8.2608695652173925
  9
$TEXTSTYLE
  7
STANDARD
  9
$DIMLFAC
 40
1
  9
$REGENMODE
 70
1
  9
$DRAGMODE
 70
2
  9
$DIMASO
 70
1
  9
$LTSCALE
 40
1.0000000000
  0
ENDSEC
  0
SECTION
  2
TABLES
  0
TABLE
  2
LTYPE
 70
2
  0
LTYPE
  2
CONTINUOUS
 70
64
  3
CONTINUOUS
 72
65
 73
0
 40
0.0000000000
  0
LTYPE
  2
DASHDOT
 70
64
  3
DASHDOT
 72
65
 73
4
 40
1.0000000000
 49
0.5000000000
 49
-0.2500000000
 49
0.0000000000
 49
-0.2500000000
  0
ENDTAB
  0
TABLE
  2
LAYER
 70
1
  0
LAYER
  2
0
 70
0
 62
2
  6
CONTINUOUS
  0
ENDTAB
  0
TABLE
  2
STYLE
 70
0
  0
STYLE
  2
Standard
 70
0
 40
0
 41
1
 50
0
 71
0
 42
2.5
  3
txt
  4

  0
ENDTAB
  0
ENDSEC
  0
SECTION
  2
BLOCKS
  0
BLOCK
  8
0
 62
50
  6
CONTINUOUS
  2
3_40_PROFIL_CR
 70
0
 10
0
 20
-4.8913043478260878
  0
LINE
  8
0
 62
50
  6
CONTINUOUS
 10
-1.4673913043478257
 20
-6.2771739130434794
 11
1.4673913043478271
 21
-6.2771739130434785
  0
LINE
  8
0
 62
50
  6
CONTINUOUS
 10
1.5760869565217401
 20
-6.1684782608695654
 11
1.5760869565217392
 21
-5.625
  0
LINE
  8
0
 62
50
  6
CONTINUOUS
 10
1.4673913043478262
 20
-5.5163043478260869
 11
1.2500000000000002
 21
-5.5163043478260878
  0
LINE
  8
0
 62
50
  6
CONTINUOUS
 10
1.2500000000000002
 20
-5.5163043478260878
 11
1.2500000000000002
 21
-5.4076086956521747
  0
LINE
  8
0
 62
50
  6
CONTINUOUS
 10
1.2500000000000002
 20
-5.4076086956521747
 11
1.4673913043478262
 21
-5.4076086956521738
  0
LINE
  8
0
 62
50
  6
CONTINUOUS
 10
1.6847826086956523
 20
-5.625
 11
1.6847826086956532
 21
-6.1684782608695654
  0
LINE
  8
0
 62
50
  6
CONTINUOUS
 10
1.4673913043478271
 20
-6.3858695652173916
 11
-1.4673913043478257
 21
-6.3858695652173925
  0
LINE
  8
0
 62
50
  6
CONTINUOUS
 10
-1.6847826086956517
 20
-6.1684782608695663
 11
-1.684782608695653
 21
-3.6141304347826098
  0
LINE
  8
0
 62
50
  6
CONTINUOUS
 10
-1.4673913043478268
 20
-3.3967391304347836
 11
1.4673913043478255
 21
-3.3967391304347823
  0
LINE
  8
0
 62
50
  6
CONTINUOUS
 10
1.6847826086956517
 20
-3.6141304347826084
 11
1.6847826086956523
 21
-4.1576086956521738
  0
LINE
  8
0
 62
50
  6
CONTINUOUS
 10
1.4673913043478262
 20
-4.375
 11
1.2500000000000002
 21
-4.375
  0
LINE
  8
0
 62
50
  6
CONTINUOUS
 10
1.2500000000000002
 20
-4.375
 11
1.2500000000000002
 21
-4.2663043478260869
  0
LINE
  8
0
 62
50
  6
CONTINUOUS
 10
1.2500000000000002
 20
-4.2663043478260869
 11
1.4673913043478262
 21
-4.2663043478260869
  0
LINE
  8
0
 62
50
  6
CONTINUOUS
 10
1.5760869565217392
 20
-4.1576086956521738
 11
1.5760869565217386
 21
-3.6141304347826084
  0
LINE
  8
0
 62
50
  6
CONTINUOUS
 10
1.4673913043478255
 20
-3.5054347826086953
 11
-1.4673913043478268
 21
-3.5054347826086967
  0
LINE
  8
0
 62
50
  6
CONTINUOUS
 10
-1.5760869565217399
 20
-3.6141304347826098
 11
-1.5760869565217388
 21
-6.1684782608695663
  0
ARC
  8
0
 62
50
  6
CONTINUOUS
 10
1.4673913043478271
 20
-6.1684782608695654
 40
0.10869565217391305
 50
270
 51
0
  0
ARC
  8
0
 62
50
  6
CONTINUOUS
 10
1.4673913043478262
 20
-5.625
 40
0.10869565217391305
 50
0
 51
90
  0
ARC
  8
0
 62
50
  6
CONTINUOUS
 10
-1.4673913043478257
 20
-6.1684782608695663
 40
0.10869565217391305
 50
180
 51
270
  0
ARC
  8
0
 62
50
  6
CONTINUOUS
 10
-1.4673913043478268
 20
-3.6141304347826098
 40
0.10869565217391305
 50
90
 51
180
  0
ARC
  8
0
 62
50
  6
CONTINUOUS
 10
1.4673913043478255
 20
-3.6141304347826084
 40
0.10869565217391305
 50
0
 51
90
  0
ARC
  8
0
 62
50
  6
CONTINUOUS
 10
1.4673913043478262
 20
-4.1576086956521738
 40
0.10869565217391305
 50
270
 51
0
  0
ARC
  8
0
 62
50
  6
CONTINUOUS
 10
1.4673913043478262
 20
-4.1576086956521738
 40
0.21739130434782611
 50
270
 51
0
  0
ARC
  8
0
 62
50
  6
CONTINUOUS
 10
1.4673913043478262
 20
-5.625
 40
0.21739130434782611
 50
0
 51
90
  0
ARC
  8
0
 62
50
  6
CONTINUOUS
 10
1.4673913043478271
 20
-6.1684782608695654
 40
0.21739130434782611
 50
270
 51
0
  0
ARC
  8
0
 62
50
  6
CONTINUOUS
 10
-1.4673913043478257
 20
-6.1684782608695663
 40
0.21739130434782611
 50
180
 51
270
  0
ARC
  8
0
 62
50
  6
CONTINUOUS
 10
-1.4673913043478268
 20
-3.6141304347826098
 40
0.21739130434782611
 50
90
 51
180
  0
ARC
  8
0
 62
50
  6
CONTINUOUS
 10
1.4673913043478255
 20
-3.6141304347826084
 40
0.21739130434782611
 50
0
 51
90
  0
ENDBLK
  0
BLOCK
  8
0
 62
5
  6
DASHDOT
  2
TELL_1
 70
0
 10
1.2999822181299457e-089
 20
-4.8913043478260878
  0
LINE
  8
0
 62
50
  6
CONTINUOUS
 10
-5.4347826086956523
 20
-2.7173913043478262
 11
5.4347826086956523
 21
-2.7173913043478262
  0
LINE
  8
0
 62
50
  6
CONTINUOUS
 10
5.4347826086956523
 20
-2.7173913043478262
 11
5.4347826086956523
 21
-7.0652173913043486
  0
LINE
  8
0
 62
50
  6
CONTINUOUS
 10
5.4347826086956523
 20
-7.0652173913043486
 11
-5.4347826086956523
 21
-7.0652173913043486
  0
LINE
  8
0
 62
50
  6
CONTINUOUS
 10
-5.4347826086956523
 20
-7.0652173913043486
 11
-5.4347826086956523
 21
-2.7173913043478262
  0
INSERT
  8
0
 62
50
  6
CONTINUOUS
  2
3_40_PROFIL_CR
 10
0
 20
-4.8913043478260878
 41
1.0
 42
1.0
 50
0.0
  0
ARC
  8
0
 62
50
  6
CONTINUOUS
 10
-3.6413043478260874
 20
-4.8913043478260878
 40
0.38043478260869568
 50
270
 51
90
  0
LINE
  8
0
 62
50
  6
CONTINUOUS
 10
-3.6413043478260874
 20
-5.2717391304347831
 11
-4.5108695652173916
 21
-5.2717391304347831
  0
ARC
  8
0
 62
50
  6
CONTINUOUS
 10
-4.5108695652173916
 20
-4.8913043478260878
 40
0.38043478260869568
 50
90
 51
270
  0
LINE
  8
0
 62
50
  6
CONTINUOUS
 10
-4.5108695652173916
 20
-4.5108695652173916
 11
-3.6413043478260874
 21
-4.5108695652173916
  0
ARC
  8
0
 62
50
  6
CONTINUOUS
 10
4.5108695652173916
 20
-4.8913043478260878
 40
0.38043478260869568
 50
270
 51
90
  0
LINE
  8
0
 62
50
  6
CONTINUOUS
 10
4.5108695652173916
 20
-5.2717391304347831
 11
3.6413043478260874
 21
-5.2717391304347831
  0
ARC
  8
0
 62
50
  6
CONTINUOUS
 10
3.6413043478260874
 20
-4.8913043478260878
 40
0.38043478260869568
 50
90
 51
270
  0
LINE
  8
0
 62
50
  6
CONTINUOUS
 10
3.6413043478260874
 20
-4.5108695652173916
 11
4.5108695652173916
 21
-4.5108695652173916
  0
LINE
  8
0
 62
5
  6
DASHDOT
 10
-4.0760869565217392
 20
-5.3804347826086962
 11
-4.0760869565217392
 21
-4.4021739130434785
  0
LINE
  8
0
 62
5
  6
DASHDOT
 10
4.0760869565217392
 20
-5.3804347826086962
 11
4.0760869565217392
 21
-4.4021739130434785
  0
LINE
  8
0
 62
5
  6
DASHDOT
 10
-5.5434782608695654
 20
-4.8913043478260878
 11
5.5434782608695654
 21
-4.8913043478260878
  0
LINE
  8
0
 62
5
  6
DASHDOT
 10
7.6193873986907594e-090
 20
-5.3804347826086962
 11
7.6193873986907594e-090
 21
-4.4021739130434785
  0
ENDBLK
  0
BLOCK
  8
0
 62
5
  6
CONTINUOUS
  2
TELL_2
 70
0
 10
-10.326086956521738
 20
0
  0
LINE
  8
0
 62
50
  6
CONTINUOUS
 10
-8.1521739130434767
 20
0.5434782608695653
 11
-8.1521739130434767
 21
0
  0
LINE
  8
0
 62
50
  6
CONTINUOUS
 10
-8.1521739130434767
 20
0
 11
-12.5
 21
0
  0
LINE
  8
0
 62
50
  6
CONTINUOUS
 10
-12.5
 20
0
 11
-12.5
 21
0.5434782608695653
  0
LINE
  8
0
 62
50
  6
CONTINUOUS
 10
-12.5
 20
0.5434782608695653
 11
-8.1521739130434767
 21
0.5434782608695653
  0
LINE
  8
0
 62
5
  6
DASHDOT
 10
-10.326086956521738
 20
-0.10869565217391305
 11
-10.326086956521738
 21
8.2608695652173925
  0
LINE
  8
0
 62
50
  6
CONTINUOUS
 10
-11.820652173913043
 20
0.5434782608695653
 11
-11.820652173913043
 21
8.1521739130434785
  0
LINE
  8
0
 62
50
  6
CONTINUOUS
 10
-11.820652173913043
 20
8.1521739130434785
 11
-8.8315217391304337
 21
8.1521739130434785
  0
LINE
  8
0
 62
50
  6
CONTINUOUS
 10
-8.8315217391304337
 20
8.1521739130434785
 11
-8.8315217391304337
 21
0.5434782608695653
  0
LINE
  8
0
 62
50
  6
CONTINUOUS
 10
-10.842391304347826
 20
0.5434782608695653
 11
-10.842391304347826
 21
8.1521739130434785
  0
LINE
  8
0
 62
50
  6
CONTINUOUS
 10
-9.8097826086956523
 20
0.5434782608695653
 11
-9.8097826086956523
 21
8.1521739130434785
  0
LINE
  8
0
 62
5
  6
CONTINUOUS
 10
-11.603260869565219
 20
0.65217391304347827
 11
-11.603260869565219
 21
8.0434782608695663
  0
LINE
  8
0
 62
5
  6
CONTINUOUS
 10
-11.059782608695652
 20
0.65217391304347827
 11
-11.059782608695652
 21
8.0434782608695663
  0
LINE
  8
0
 62
5
  6
CONTINUOUS
 10
-9.5923913043478262
 20
0.65217391304347827
 11
-9.5923913043478262
 21
8.0434782608695663
  0
LINE
  8
0
 62
5
  6
CONTINUOUS
 10
-9.0489130434782581
 20
0.65217391304347827
 11
-9.0489130434782581
 21
8.0434782608695663
  0
ENDBLK
  0
BLOCK
  8
0
 62
5
  6
CONTINUOUS
  2
TELL_3
 70
0
 10
10.326086956521738
 20
0
  0
LINE
  8
0
 62
50
  6
CONTINUOUS
 10
12.5
 20
0.5434782608695653
 11
12.5
 21
0
  0
LINE
  8
0
 62
50
  6
CONTINUOUS
 10
12.5
 20
0
 11
8.1521739130434767
 21
0
  0
LINE
  8
0
 62
50
  6
CONTINUOUS
 10
8.1521739130434767
 20
0
 11
8.1521739130434767
 21
0.5434782608695653
  0
LINE
  8
0
 62
50
  6
CONTINUOUS
 10
8.1521739130434767
 20
0.5434782608695653
 11
12.5
 21
0.5434782608695653
  0
LINE
  8
0
 62
5
  6
DASHDOT
 10
10.326086956521738
 20
-0.10869565217391305
 11
10.326086956521738
 21
8.2608695652173925
  0
LINE
  8
0
 62
50
  6
CONTINUOUS
 10
8.8315217391304337
 20
0.5434782608695653
 11
8.8315217391304337
 21
8.1521739130434785
  0
LINE
  8
0
 62
50
  6
CONTINUOUS
 10
8.8315217391304337
 20
8.1521739130434785
 11
11.820652173913043
 21
8.1521739130434785
  0
LINE
  8
0
 62
50
  6
CONTINUOUS
 10
11.820652173913043
 20
8.1521739130434785
 11
11.820652173913043
 21
0.5434782608695653
  0
LINE
  8
0
 62
5
  6
CONTINUOUS
 10
9.0489130434782581
 20
0.65217391304347827
 11
9.0489130434782581
 21
8.0434782608695663
  0
LINE
  8
0
 62
5
  6
CONTINUOUS
 10
11.603260869565219
 20
0.65217391304347827
 11
11.603260869565219
 21
8.0434782608695663
  0
ENDBLK
  0
BLOCK
  8
0
 62
5
  6
CONTINUOUS
  2
3_60_CRA_L_150MM__55_502_
 70
0
 10
0
 20
0
  0
LINE
  8
0
 62
50
  6
CONTINUOUS
 10
-5.4347826086956523
 20
0
 11
-5.4347826086956523
 21
0.5434782608695653
  0
LINE
  8
0
 62
50
  6
CONTINUOUS
 10
-5.4347826086956523
 20
0.5434782608695653
 11
5.4347826086956523
 21
0.5434782608695653
  0
LINE
  8
0
 62
50
  6
CONTINUOUS
 10
5.4347826086956523
 20
0.5434782608695653
 11
5.4347826086956523
 21
0
  0
LINE
  8
0
 62
50
  6
CONTINUOUS
 10
5.4347826086956523
 20
0
 11
-5.4347826086956523
 21
0
  0
LINE
  8
0
 62
5
  6
DASHDOT
 10
-4.0760869565217392
 20
-0.10869565217391305
 11
-4.0760869565217392
 21
0.65217391304347827
  0
LINE
  8
0
 62
5
  6
DASHDOT
 10
4.0760869565217392
 20
-0.10869565217391305
 11
4.0760869565217392
 21
0.65217391304347827
  0
LINE
  8
0
 62
50
  6
CONTINUOUS
 10
-1.6847826086956523
 20
0.5434782608695653
 11
-1.6847826086956523
 21
8.1521739130434785
  0
LINE
  8
0
 62
50
  6
CONTINUOUS
 10
-1.6847826086956523
 20
8.1521739130434785
 11
1.6847826086956523
 21
8.1521739130434785
  0
LINE
  8
0
 62
50
  6
CONTINUOUS
 10
1.6847826086956523
 20
8.1521739130434785
 11
1.6847826086956523
 21
0.5434782608695653
  0
LINE
  8
0
 62
5
  6
CONTINUOUS
 10
-1.4673913043478262
 20
0.65217391304347827
 11
-1.4673913043478262
 21
8.0434782608695663
  0
LINE
  8
0
 62
5
  6
CONTINUOUS
 10
1.4673913043478262
 20
0.65217391304347827
 11
1.4673913043478262
 21
8.0434782608695663
  0
LINE
  8
0
 62
5
  6
DASHDOT
 10
0
 20
-0.10869565217391305
 11
0
 21
8.2608695652173925
  0
ENDBLK
  0
BLOCK
  8
0
 62
50
  6
CONTINUOUS
  2
FIXATIOND01
 70
0
 10
0
 20
0
  0
INSERT
  8
0
 62
5
  6
DASHDOT
  2
TELL_1
 10
1.2999822181299457e-089
 20
-4.8913043478260878
 41
1.0
 42
1.0
 50
0.0
  0
INSERT
  8
0
 62
5
  6
CONTINUOUS
  2
TELL_2
 10
-10.326086956521738
 20
0
 41
1.0
 42
1.0
 50
0.0
  0
INSERT
  8
0
 62
5
  6
CONTINUOUS
  2
TELL_3
 10
10.326086956521738
 20
0
 41
1.0
 42
1.0
 50
0.0
  0
INSERT
  8
0
 62
5
  6
CONTINUOUS
  2
3_60_CRA_L_150MM__55_502_
 10
0
 20
0
 41
1.0
 42
1.0
 50
0.0
  0
ENDBLK
  0
ENDSEC
  0
SECTION
  2
ENTITIES
  0
INSERT
  8
0
 62
50
  6
CONTINUOUS
  2
FIXATIOND01
 10
0
 20
0
 41
1.0
 42
1.0
 50
0.0
  0
ENDSEC
  0
EOF
