  0
SECTION
  2
HEADER
  9
$ACADVER
  1
AC1009
  9
$EXTMIN
 10
-12.5
 20
-7.8571428571428568
  9
$EXTMAX
 10
12.5
 20
7.2857142857142856
  9
$TEXTSTYLE
  7
STANDARD
  9
$DIMLFAC
 40
1
  9
$REGENMODE
 70
1
  9
$DRAGMODE
 70
2
  9
$DIMASO
 70
1
  9
$LTSCALE
 40
1.0000000000
  0
ENDSEC
  0
SECTION
  2
TABLES
  0
TABLE
  2
LTYPE
 70
2
  0
LTYPE
  2
CONTINUOUS
 70
64
  3
CONTINUOUS
 72
65
 73
0
 40
0.0000000000
  0
LTYPE
  2
DASHDOT
 70
64
  3
DASHDOT
 72
65
 73
4
 40
1.0000000000
 49
0.5000000000
 49
-0.2500000000
 49
0.0000000000
 49
-0.2500000000
  0
ENDTAB
  0
TABLE
  2
LAYER
 70
1
  0
LAYER
  2
0
 70
0
 62
2
  6
CONTINUOUS
  0
ENDTAB
  0
TABLE
  2
STYLE
 70
0
  0
STYLE
  2
Standard
 70
0
 40
0
 41
1
 50
0
 71
0
 42
2.5
  3
txt
  4

  0
ENDTAB
  0
ENDSEC
  0
SECTION
  2
BLOCKS
  0
BLOCK
  8
0
 62
50
  6
CONTINUOUS
  2
3_40_PROFIL_C
 70
0
 10
-9.3000817104725594e-090
 20
-5.7142857142857135
  0
ARC
  8
0
 62
50
  6
CONTINUOUS
 10
-0.96428571428462562
 20
-6.6785714285714279
 40
0.2857142857142857
 50
180
 51
270
  0
LINE
  8
0
 62
50
  6
CONTINUOUS
 10
-0.96428571428462562
 20
-6.9642857142857135
 11
0.96428571428680288
 21
-6.9642857142857135
  0
ARC
  8
0
 62
50
  6
CONTINUOUS
 10
0.96428571428680243
 20
-6.6785714285714279
 40
0.2857142857142857
 50
270
 51
0
  0
LINE
  8
0
 62
50
  6
CONTINUOUS
 10
1.250000000001088
 20
-6.6785714285714279
 11
1.250000000001088
 21
-6.1785714285714279
  0
LINE
  8
0
 62
50
  6
CONTINUOUS
 10
1.250000000001088
 20
-6.1785714285714279
 11
1.1071428571439452
 21
-6.1785714285714279
  0
LINE
  8
0
 62
50
  6
CONTINUOUS
 10
1.1071428571439452
 20
-6.1785714285714279
 11
1.1071428571439457
 21
-6.6785714285714279
  0
ARC
  8
0
 62
50
  6
CONTINUOUS
 10
0.96428571428680243
 20
-6.6785714285714279
 40
0.14285714285714285
 50
270
 51
0
  0
LINE
  8
0
 62
50
  6
CONTINUOUS
 10
0.96428571428680288
 20
-6.8214285714285712
 11
-0.96428571428462562
 21
-6.8214285714285712
  0
ARC
  8
0
 62
50
  6
CONTINUOUS
 10
-0.96428571428462562
 20
-6.6785714285714279
 40
0.14285714285714285
 50
180
 51
270
  0
LINE
  8
0
 62
50
  6
CONTINUOUS
 10
-1.1071428571417685
 20
-6.6785714285714279
 11
-1.1071428571417694
 21
-4.75
  0
ARC
  8
0
 62
50
  6
CONTINUOUS
 10
-0.96428571428462662
 20
-4.75
 40
0.14285714285714285
 50
90
 51
180
  0
LINE
  8
0
 62
50
  6
CONTINUOUS
 10
-0.96428571428462662
 20
-4.6071428571428568
 11
0.96428571428680188
 21
-4.6071428571428568
  0
ARC
  8
0
 62
50
  6
CONTINUOUS
 10
0.96428571428680243
 20
-4.75
 40
0.14285714285714285
 50
0
 51
90
  0
LINE
  8
0
 62
50
  6
CONTINUOUS
 10
1.1071428571439448
 20
-4.75
 11
1.1071428571439452
 21
-5.25
  0
LINE
  8
0
 62
50
  6
CONTINUOUS
 10
1.1071428571439452
 20
-5.25
 11
1.250000000001088
 21
-5.25
  0
LINE
  8
0
 62
50
  6
CONTINUOUS
 10
1.250000000001088
 20
-5.25
 11
1.250000000001088
 21
-4.75
  0
ARC
  8
0
 62
50
  6
CONTINUOUS
 10
0.96428571428680243
 20
-4.75
 40
0.2857142857142857
 50
0
 51
90
  0
LINE
  8
0
 62
50
  6
CONTINUOUS
 10
0.96428571428680188
 20
-4.4642857142857135
 11
-0.96428571428462662
 21
-4.4642857142857144
  0
ARC
  8
0
 62
50
  6
CONTINUOUS
 10
-0.96428571428462662
 20
-4.75
 40
0.2857142857142857
 50
90
 51
180
  0
LINE
  8
0
 62
50
  6
CONTINUOUS
 10
-1.249999999998912
 20
-4.75
 11
-1.2499999999989115
 21
-6.6785714285714279
  0
ENDBLK
  0
BLOCK
  8
0
 62
50
  6
CONTINUOUS
  2
TELL_1
 70
0
 10
3.0097818934643349e-090
 20
-5.7142857142857135
  0
INSERT
  8
0
 62
50
  6
CONTINUOUS
  2
3_40_PROFIL_C
 10
-9.3000817104725594e-090
 20
-5.7142857142857135
 41
1.0
 42
1.0
 50
0.0
  0
LINE
  8
0
 62
50
  6
CONTINUOUS
 10
4.6428571428571423
 20
-4.2857142857142385
 11
4.6428571428571423
 21
-7.1428571428571894
  0
LINE
  8
0
 62
50
  6
CONTINUOUS
 10
4.2304640934360052
 20
-7.8571428571428568
 11
-4.2304640934360052
 21
-7.8571428571428568
  0
LINE
  8
0
 62
50
  6
CONTINUOUS
 10
-4.6428571428571423
 20
-7.1428571428571885
 11
-4.6428571428571423
 21
-4.2857142857142856
  0
LINE
  8
0
 62
50
  6
CONTINUOUS
 10
-4.2304640934359812
 20
-3.5714285714285712
 11
4.2304640934360052
 21
-3.5714285714285712
  0
ARC
  8
0
 62
50
  6
CONTINUOUS
 10
-2.3571428571428572
 20
-5.7142857142857135
 40
0.39285714285714285
 50
270
 51
90
  0
LINE
  8
0
 62
50
  6
CONTINUOUS
 10
-2.3571428571428572
 20
-6.1071428571428568
 11
-3.714285714285714
 21
-6.1071428571428568
  0
ARC
  8
0
 62
50
  6
CONTINUOUS
 10
-3.714285714285714
 20
-5.7142857142857135
 40
0.39285714285714285
 50
90
 51
270
  0
LINE
  8
0
 62
50
  6
CONTINUOUS
 10
-3.714285714285714
 20
-5.3214285714285712
 11
-2.3571428571428572
 21
-5.3214285714285712
  0
LINE
  8
0
 62
5
  6
DASHDOT
 10
-3.0357142857142856
 20
-6.25
 11
-3.0357142857142856
 21
-5.1785714285714279
  0
ARC
  8
0
 62
50
  6
CONTINUOUS
 10
2.3571428571428572
 20
-5.7142857142857135
 40
0.39285714285714285
 50
90
 51
270
  0
LINE
  8
0
 62
50
  6
CONTINUOUS
 10
2.3571428571428572
 20
-6.1071428571428568
 11
3.714285714285714
 21
-6.1071428571428568
  0
ARC
  8
0
 62
50
  6
CONTINUOUS
 10
3.714285714285714
 20
-5.7142857142857135
 40
0.39285714285714285
 50
270
 51
90
  0
LINE
  8
0
 62
50
  6
CONTINUOUS
 10
3.714285714285714
 20
-5.3214285714285712
 11
2.3571428571428572
 21
-5.3214285714285712
  0
LINE
  8
0
 62
5
  6
DASHDOT
 10
3.0357142857142856
 20
-6.25
 11
3.0357142857142856
 21
-5.1785714285714279
  0
LINE
  8
0
 62
5
  6
DASHDOT
 10
-4.7857142857142856
 20
-5.7142857142857135
 11
4.7857142857142856
 21
-5.7142857142857135
  0
LINE
  8
0
 62
5
  6
DASHDOT
 10
-3.2402181065356647e-090
 20
-6.25
 11
-3.2402181065356647e-090
 21
-5.1785714285714279
  0
LINE
  8
0
 62
50
  6
CONTINUOUS
 10
-4.230464093436006
 20
-7.8571428571428568
 11
-4.6428571428571423
 21
-7.1428571428571894
  0
LINE
  8
0
 62
50
  6
CONTINUOUS
 10
4.230464093436006
 20
-7.8571428571428568
 11
4.6428571428571423
 21
-7.1428571428571894
  0
LINE
  8
0
 62
50
  6
CONTINUOUS
 10
-4.6428571428571423
 20
-4.2857142857142856
 11
-4.2304640934359812
 21
-3.5714285714285712
  0
LINE
  8
0
 62
50
  6
CONTINUOUS
 10
4.230464093436006
 20
-3.5714285714285712
 11
4.6428571428571423
 21
-4.2857142857142385
  0
ENDBLK
  0
BLOCK
  8
0
 62
5
  6
CONTINUOUS
  2
3_60_CA__L_100MM_20_405_-
 70
0
 10
0
 20
0
  0
LINE
  8
0
 62
50
  6
CONTINUOUS
 10
-4.6428571428571423
 20
0
 11
-4.6428571428571423
 21
0.3571428571428571
  0
LINE
  8
0
 62
50
  6
CONTINUOUS
 10
-4.6428571428571423
 20
0.3571428571428571
 11
4.6428571428571423
 21
0.3571428571428571
  0
LINE
  8
0
 62
50
  6
CONTINUOUS
 10
4.6428571428571423
 20
0.3571428571428571
 11
4.6428571428571423
 21
0
  0
LINE
  8
0
 62
50
  6
CONTINUOUS
 10
4.6428571428571423
 20
0
 11
-4.6428571428571423
 21
0
  0
LINE
  8
0
 62
5
  6
DASHDOT
 10
-3.0357142857142856
 20
-0.14285714285714285
 11
-3.0357142857142856
 21
0.5
  0
LINE
  8
0
 62
5
  6
DASHDOT
 10
3.0357142857142856
 20
-0.14285714285714285
 11
3.0357142857142856
 21
0.5
  0
LINE
  8
0
 62
50
  6
CONTINUOUS
 10
-4.2304640934359812
 20
0
 11
-4.2304640934359812
 21
0.3571428571428571
  0
LINE
  8
0
 62
50
  6
CONTINUOUS
 10
4.230464093436006
 20
0
 11
4.230464093436006
 21
0.3571428571428571
  0
LINE
  8
0
 62
50
  6
CONTINUOUS
 10
-1.25
 20
0.3571428571428571
 11
-1.25
 21
7.1428571428571423
  0
LINE
  8
0
 62
50
  6
CONTINUOUS
 10
-1.25
 20
7.1428571428571423
 11
1.25
 21
7.1428571428571423
  0
LINE
  8
0
 62
50
  6
CONTINUOUS
 10
1.25
 20
7.1428571428571423
 11
1.25
 21
0.3571428571428571
  0
LINE
  8
0
 62
5
  6
CONTINUOUS
 10
-0.96428571428571419
 20
0.5
 11
-0.96428571428571419
 21
7
  0
LINE
  8
0
 62
5
  6
CONTINUOUS
 10
0.96428571428571419
 20
0.5
 11
0.96428571428571419
 21
7
  0
LINE
  8
0
 62
5
  6
DASHDOT
 10
0
 20
-0.14285714285714285
 11
0
 21
7.2857142857142856
  0
ENDBLK
  0
BLOCK
  8
0
 62
5
  6
CONTINUOUS
  2
TELL_2
 70
0
 10
-10.357142857142854
 20
0
  0
LINE
  8
0
 62
50
  6
CONTINUOUS
 10
-12.5
 20
0.3571428571428571
 11
-8.2142857142857135
 21
0.3571428571428571
  0
LINE
  8
0
 62
50
  6
CONTINUOUS
 10
-8.2142857142857135
 20
0.3571428571428571
 11
-8.2142857142857135
 21
0
  0
LINE
  8
0
 62
50
  6
CONTINUOUS
 10
-8.2142857142857135
 20
0
 11
-12.5
 21
0
  0
LINE
  8
0
 62
50
  6
CONTINUOUS
 10
-12.5
 20
0
 11
-12.5
 21
0.3571428571428571
  0
LINE
  8
0
 62
50
  6
CONTINUOUS
 10
-11.785714285714285
 20
0
 11
-11.785714285714285
 21
0.3571428571428571
  0
LINE
  8
0
 62
50
  6
CONTINUOUS
 10
-8.9285714285714288
 20
0
 11
-8.9285714285714288
 21
0.3571428571428571
  0
LINE
  8
0
 62
50
  6
CONTINUOUS
 10
-11.607142857142854
 20
0.3571428571428571
 11
-11.607142857142854
 21
7.1428571428571423
  0
LINE
  8
0
 62
50
  6
CONTINUOUS
 10
-11.607142857142854
 20
7.1428571428571423
 11
-9.1071428571428541
 21
7.1428571428571423
  0
LINE
  8
0
 62
50
  6
CONTINUOUS
 10
-9.1071428571428541
 20
7.1428571428571423
 11
-9.1071428571428541
 21
0.3571428571428571
  0
LINE
  8
0
 62
50
  6
CONTINUOUS
 10
-10.821428571428571
 20
0.3571428571428571
 11
-10.821428571428571
 21
7.1428571428571423
  0
LINE
  8
0
 62
5
  6
DASHDOT
 10
-10.357142857142854
 20
-0.14285714285714285
 11
-10.357142857142854
 21
7.2857142857142856
  0
LINE
  8
0
 62
50
  6
CONTINUOUS
 10
-9.8928571428571388
 20
0.3571428571428571
 11
-9.8928571428571388
 21
7.1428571428571423
  0
LINE
  8
0
 62
5
  6
CONTINUOUS
 10
-11.321428571428569
 20
0.5
 11
-11.321428571428569
 21
7
  0
LINE
  8
0
 62
5
  6
CONTINUOUS
 10
-9.3928571428571406
 20
0.5
 11
-9.3928571428571406
 21
7
  0
ENDBLK
  0
BLOCK
  8
0
 62
5
  6
CONTINUOUS
  2
TELL_3
 70
0
 10
10.357142857142854
 20
0
  0
LINE
  8
0
 62
50
  6
CONTINUOUS
 10
8.2142857142857135
 20
0
 11
8.2142857142857135
 21
0.3571428571428571
  0
LINE
  8
0
 62
50
  6
CONTINUOUS
 10
8.2142857142857135
 20
0.3571428571428571
 11
12.5
 21
0.3571428571428571
  0
LINE
  8
0
 62
50
  6
CONTINUOUS
 10
12.5
 20
0.3571428571428571
 11
12.5
 21
0
  0
LINE
  8
0
 62
50
  6
CONTINUOUS
 10
12.5
 20
0
 11
8.2142857142857135
 21
0
  0
LINE
  8
0
 62
50
  6
CONTINUOUS
 10
8.9285714285714288
 20
0
 11
8.9285714285714288
 21
0.3571428571428571
  0
LINE
  8
0
 62
50
  6
CONTINUOUS
 10
11.785714285714285
 20
0
 11
11.785714285714285
 21
0.3571428571428571
  0
LINE
  8
0
 62
50
  6
CONTINUOUS
 10
9.1071428571428541
 20
0.3571428571428571
 11
9.1071428571428541
 21
7.1428571428571423
  0
LINE
  8
0
 62
50
  6
CONTINUOUS
 10
9.1071428571428541
 20
7.1428571428571423
 11
11.607142857142854
 21
7.1428571428571423
  0
LINE
  8
0
 62
50
  6
CONTINUOUS
 10
11.607142857142854
 20
7.1428571428571423
 11
11.607142857142854
 21
0.3571428571428571
  0
LINE
  8
0
 62
5
  6
DASHDOT
 10
10.357142857142854
 20
-0.14285714285714285
 11
10.357142857142854
 21
7.2857142857142856
  0
LINE
  8
0
 62
5
  6
CONTINUOUS
 10
9.3928571428571406
 20
0.5
 11
9.3928571428571406
 21
7
  0
LINE
  8
0
 62
5
  6
CONTINUOUS
 10
11.321428571428569
 20
0.5
 11
11.321428571428569
 21
7
  0
ENDBLK
  0
BLOCK
  8
0
 62
50
  6
CONTINUOUS
  2
FIXATIOND00
 70
0
 10
0
 20
0
  0
INSERT
  8
0
 62
50
  6
CONTINUOUS
  2
TELL_1
 10
3.0097818934643349e-090
 20
-5.7142857142857135
 41
1.0
 42
1.0
 50
0.0
  0
INSERT
  8
0
 62
5
  6
CONTINUOUS
  2
3_60_CA__L_100MM_20_405_-
 10
0
 20
0
 41
1.0
 42
1.0
 50
0.0
  0
INSERT
  8
0
 62
5
  6
CONTINUOUS
  2
TELL_2
 10
-10.357142857142854
 20
0
 41
1.0
 42
1.0
 50
0.0
  0
INSERT
  8
0
 62
5
  6
CONTINUOUS
  2
TELL_3
 10
10.357142857142854
 20
0
 41
1.0
 42
1.0
 50
0.0
  0
ENDBLK
  0
ENDSEC
  0
SECTION
  2
ENTITIES
  0
INSERT
  8
0
 62
50
  6
CONTINUOUS
  2
FIXATIOND00
 10
0
 20
0
 41
1.0
 42
1.0
 50
0.0
  0
ENDSEC
  0
EOF
