  0
SECTION
  2
HEADER
  9
$ACADVER
  1
AC1009
  9
$EXTMIN
 10
-6.7307692306612337
 20
-25
  9
$EXTMAX
 10
6.7307692308749765
 20
0
  9
$TEXTSTYLE
  7
STANDARD
  9
$DIMLFAC
 40
1
  9
$REGENMODE
 70
1
  9
$DRAGMODE
 70
2
  9
$DIMASO
 70
1
  9
$LTSCALE
 40
1.0000000000
  0
ENDSEC
  0
SECTION
  2
TABLES
  0
TABLE
  2
LTYPE
 70
1
  0
LTYPE
  2
CONTINUOUS
 70
64
  3
CONTINUOUS
 72
65
 73
0
 40
0.0000000000
  0
ENDTAB
  0
TABLE
  2
LAYER
 70
1
  0
LAYER
  2
0
 70
0
 62
2
  6
CONTINUOUS
  0
ENDTAB
  0
TABLE
  2
STYLE
 70
0
  0
STYLE
  2
Standard
 70
0
 40
0
 41
1
 50
0
 71
0
 42
2.5
  3
txt
  4

  0
ENDTAB
  0
ENDSEC
  0
SECTION
  2
BLOCKS
  0
BLOCK
  8
0
 62
50
  6
CONTINUOUS
  2
3_40_PROFIL_CR
 70
0
 10
0
 20
0
  0
LINE
  8
0
 62
50
  6
CONTINUOUS
 10
-5.5769230768092264
 20
0
 11
5.5769230770295826
 21
-1.6462728616215479e-011
  0
LINE
  8
0
 62
50
  6
CONTINUOUS
 10
6.7307692308683631
 20
-6.9230769230888267
 11
6.7307692308749765
 21
-1.1538461538453939
  0
LINE
  8
0
 62
50
  6
CONTINUOUS
 10
6.7307692308683631
 20
-16.538461538467111
 11
6.7307692308683631
 21
-8.4615384615493525
  0
LINE
  8
0
 62
50
  6
CONTINUOUS
 10
6.7307692308683631
 20
-18.076923076927635
 11
6.7307692308749765
 21
-23.846153846138144
  0
LINE
  8
0
 62
50
  6
CONTINUOUS
 10
2.8846153846134852
 20
-23.846153846138144
 11
2.8846153846068714
 21
-21.923076923078948
  0
LINE
  8
0
 62
50
  6
CONTINUOUS
 10
4.0384615384588791
 20
-24.999999999983537
 11
5.5769230770295826
 21
-25
  0
ARC
  8
0
 62
50
  6
CONTINUOUS
 10
5.5769230770229692
 20
-1.1538461538618567
 40
1.1538461538453939
 50
8.1747888644379191e-010
 51
90
  0
ARC
  8
0
 62
50
  6
CONTINUOUS
 10
5.5769230770229692
 20
-23.846153846154607
 40
1.1538461538453939
 50
270
 51
8.1747888644379191e-010
  0
ARC
  8
0
 62
50
  6
CONTINUOUS
 10
4.0384615384522657
 20
-23.846153846154607
 40
1.1538461538453939
 50
179.99999999918253
 51
270
  0
ARC
  8
0
 62
50
  6
CONTINUOUS
 10
6.3461538462532312
 20
-7.6923076923190896
 40
0.38461538461513134
 50
90
 51
270
  0
ARC
  8
0
 62
50
  6
CONTINUOUS
 10
6.3461538462532312
 20
-6.9230769230888267
 40
0.38461538461513106
 50
270
 51
0
  0
ARC
  8
0
 62
50
  6
CONTINUOUS
 10
6.3461538462532312
 20
-8.4615384615493525
 40
0.38461538461513106
 50
0
 51
90
  0
ARC
  8
0
 62
50
  6
CONTINUOUS
 10
6.3461538462532312
 20
-17.307692307697373
 40
0.38461538461513134
 50
90
 51
270
  0
ARC
  8
0
 62
50
  6
CONTINUOUS
 10
6.3461538462532312
 20
-16.538461538467111
 40
0.38461538461513106
 50
270
 51
0
  0
ARC
  8
0
 62
50
  6
CONTINUOUS
 10
6.3461538462532312
 20
-18.076923076927635
 40
0.38461538461513106
 50
0
 51
90
  0
LINE
  8
0
 62
50
  6
CONTINUOUS
 10
-6.7307692306612337
 20
-6.9230769230888267
 11
-6.7307692306546203
 21
-1.1538461538453939
  0
LINE
  8
0
 62
50
  6
CONTINUOUS
 10
-6.7307692306612337
 20
-8.4615384615493525
 11
-6.7307692306612337
 21
-16.538461538467111
  0
LINE
  8
0
 62
50
  6
CONTINUOUS
 10
-6.7307692306612337
 20
-18.076923076927635
 11
-6.7307692306546203
 21
-23.846153846138144
  0
LINE
  8
0
 62
50
  6
CONTINUOUS
 10
-2.8846153846134852
 20
-23.846153846138144
 11
-2.8846153846200986
 21
-21.923076923078948
  0
LINE
  8
0
 62
50
  6
CONTINUOUS
 10
-4.0384615384588791
 20
-24.999999999983537
 11
-5.5769230768092264
 21
-24.999999999983537
  0
ARC
  8
0
 62
50
  6
CONTINUOUS
 10
-5.5769230768158398
 20
-1.1538461538618567
 40
1.1538461538453939
 50
90
 51
179.99999999918253
  0
ARC
  8
0
 62
50
  6
CONTINUOUS
 10
-5.5769230768158398
 20
-23.846153846138144
 40
1.1538461538453939
 50
180
 51
270
  0
ARC
  8
0
 62
50
  6
CONTINUOUS
 10
-4.0384615384654925
 20
-23.846153846154607
 40
1.1538461538453939
 50
270
 51
8.1747888644379873e-010
  0
ARC
  8
0
 62
50
  6
CONTINUOUS
 10
-6.3461538460461027
 20
-7.6923076923190896
 40
0.38461538461513134
 50
270
 51
90
  0
ARC
  8
0
 62
50
  6
CONTINUOUS
 10
-6.3461538460461027
 20
-6.9230769230888267
 40
0.38461538461513106
 50
180
 51
270
  0
ARC
  8
0
 62
50
  6
CONTINUOUS
 10
-6.3461538460461027
 20
-8.4615384615493525
 40
0.38461538461513106
 50
90
 51
180
  0
ARC
  8
0
 62
50
  6
CONTINUOUS
 10
-6.3461538460461027
 20
-17.307692307697373
 40
0.38461538461513134
 50
270
 51
90
  0
ARC
  8
0
 62
50
  6
CONTINUOUS
 10
-6.3461538460461027
 20
-16.538461538467111
 40
0.38461538461513106
 50
180
 51
270
  0
ARC
  8
0
 62
50
  6
CONTINUOUS
 10
-6.3461538460461027
 20
-18.076923076927635
 40
0.38461538461513106
 50
90
 51
180
  0
ARC
  8
0
 62
50
  6
CONTINUOUS
 10
6.3461538462532312
 20
-7.6923076923190896
 40
1.3461538461529596
 50
115.37693352474588
 51
244.62306647555562
  0
LINE
  8
0
 62
50
  6
CONTINUOUS
 10
5.7692307693423626
 20
-8.9085683308584631
 11
5.7692307693423626
 21
-16.091431669174529
  0
ARC
  8
0
 62
50
  6
CONTINUOUS
 10
6.3461538462532312
 20
-17.307692307697373
 40
1.3461538461529596
 50
115.37693352474588
 51
244.62306647555562
  0
LINE
  8
0
 62
50
  6
CONTINUOUS
 10
5.7692307693423626
 20
-18.523952946236747
 11
5.7692307693371481
 21
-23.846153846138144
  0
ARC
  8
0
 62
50
  6
CONTINUOUS
 10
5.5769230770229692
 20
-23.846153846154607
 40
0.19230769230756567
 50
270.00000000000006
 51
8.1747888644379211e-010
  0
LINE
  8
0
 62
50
  6
CONTINUOUS
 10
5.5769230770336922
 20
-24.038461538462172
 11
4.0384615384629896
 21
-24.038461538445709
  0
ARC
  8
0
 62
50
  6
CONTINUOUS
 10
4.0384615384522657
 20
-23.846153846154607
 40
0.19230769230756567
 50
179.99999999918256
 51
270.00000000000006
  0
LINE
  8
0
 62
50
  6
CONTINUOUS
 10
3.8461538461513136
 20
-23.846153846138144
 11
3.8461538461446998
 21
-21.923076923075641
  0
LINE
  8
0
 62
50
  6
CONTINUOUS
 10
-5.5769230768106475
 20
-0.9615384615378284
 11
5.576923077028872
 21
-0.96153846155429112
  0
ARC
  8
0
 62
50
  6
CONTINUOUS
 10
5.5769230770229692
 20
-1.1538461538618567
 40
0.19230769230756567
 50
8.1747888644379211e-010
 51
90.000000000000028
  0
LINE
  8
0
 62
50
  6
CONTINUOUS
 10
5.7692307693371481
 20
-1.1538461538453939
 11
5.7692307693423626
 21
-6.4760470537962451
  0
ARC
  8
0
 62
50
  6
CONTINUOUS
 10
-6.3461538460461027
 20
-17.307692307697373
 40
1.3461538461529596
 50
295.37693352555874
 51
64.623066474139748
  0
LINE
  8
0
 62
50
  6
CONTINUOUS
 10
-5.7692307691115783
 20
-16.091431669185749
 11
-5.7692307691115783
 21
-8.9085683308472419
  0
ARC
  8
0
 62
50
  6
CONTINUOUS
 10
-6.3461538460461027
 20
-7.6923076923190896
 40
1.3461538461529596
 50
295.37693352555874
 51
64.623066474139748
  0
LINE
  8
0
 62
50
  6
CONTINUOUS
 10
-5.7692307691115783
 20
-6.4760470538074655
 11
-5.7692307691167919
 21
-1.1538461538453939
  0
ARC
  8
0
 62
50
  6
CONTINUOUS
 10
-5.5769230768158398
 20
-1.1538461538618567
 40
0.19230769230756567
 50
90.000000000000028
 51
179.99999999918256
  0
LINE
  8
0
 62
50
  6
CONTINUOUS
 10
-3.846153846157927
 20
-21.923076923082256
 11
-3.8461538461513136
 21
-23.846153846138144
  0
ARC
  8
0
 62
50
  6
CONTINUOUS
 10
-4.0384615384654925
 20
-23.846153846154607
 40
0.19230769230756567
 50
270.00000000000006
 51
8.1747888644379883e-010
  0
LINE
  8
0
 62
50
  6
CONTINUOUS
 10
-4.0384615384588791
 20
-24.038461538445709
 11
-5.5769230768092264
 21
-24.038461538445709
  0
ARC
  8
0
 62
50
  6
CONTINUOUS
 10
-5.5769230768158398
 20
-23.846153846138144
 40
0.19230769230756567
 50
180.00000000000006
 51
270.00000000000006
  0
LINE
  8
0
 62
50
  6
CONTINUOUS
 10
-5.7692307691167919
 20
-23.846153846138144
 11
-5.7692307691115783
 21
-18.523952946225524
  0
LINE
  8
0
 62
50
  6
CONTINUOUS
 10
-3.846153846157927
 20
-21.923076923082256
 11
-2.8846153846200986
 21
-21.923076923078948
  0
LINE
  8
0
 62
50
  6
CONTINUOUS
 10
2.8846153846068714
 20
-21.923076923078948
 11
3.8461538461446998
 21
-21.923076923075641
  0
ENDBLK
  0
ENDSEC
  0
SECTION
  2
ENTITIES
  0
INSERT
  8
0
 62
50
  6
CONTINUOUS
  2
3_40_PROFIL_CR
 10
0
 20
0
 41
1.0
 42
1.0
 50
0.0
  0
ENDSEC
  0
EOF
