  0
SECTION
  2
HEADER
  9
$ACADVER
  1
AC1009
  9
$EXTMIN
 10
-10.9375
 20
-25
  9
$EXTMAX
 10
10.9375
 20
0
  9
$TEXTSTYLE
  7
STANDARD
  9
$DIMLFAC
 40
1
  9
$REGENMODE
 70
1
  9
$DRAGMODE
 70
2
  9
$DIMASO
 70
1
  9
$LTSCALE
 40
1.0000000000
  0
ENDSEC
  0
SECTION
  2
TABLES
  0
TABLE
  2
LTYPE
 70
1
  0
LTYPE
  2
CONTINUOUS
 70
64
  3
CONTINUOUS
 72
65
 73
0
 40
0.0000000000
  0
ENDTAB
  0
TABLE
  2
LAYER
 70
1
  0
LAYER
  2
0
 70
0
 62
2
  6
CONTINUOUS
  0
ENDTAB
  0
TABLE
  2
STYLE
 70
0
  0
STYLE
  2
Standard
 70
0
 40
0
 41
1
 50
0
 71
0
 42
2.5
  3
txt
  4

  0
ENDTAB
  0
ENDSEC
  0
SECTION
  2
BLOCKS
  0
BLOCK
  8
0
 62
50
  6
CONTINUOUS
  2
3_42_PROFIL_CM
 70
0
 10
0
 20
0
  0
LINE
  8
0
 62
50
  6
CONTINUOUS
 10
-9.0625
 20
-3.75
 11
-9.0625000000000018
 21
-21.25
  0
LINE
  8
0
 62
50
  6
CONTINUOUS
 10
-7.1875
 20
-23.125
 11
-4.375
 21
-23.125
  0
LINE
  8
0
 62
50
  6
CONTINUOUS
 10
-4.375
 20
-23.125
 11
-4.375
 21
-25
  0
LINE
  8
0
 62
50
  6
CONTINUOUS
 10
-4.375
 20
-25
 11
-7.1875
 21
-25
  0
LINE
  8
0
 62
50
  6
CONTINUOUS
 10
-10.9375
 20
-21.25
 11
-10.9375
 21
-3.75
  0
LINE
  8
0
 62
50
  6
CONTINUOUS
 10
-7.1875
 20
0
 11
7.1875
 21
0
  0
LINE
  8
0
 62
50
  6
CONTINUOUS
 10
10.9375
 20
-3.75
 11
10.9375
 21
-21.25
  0
LINE
  8
0
 62
50
  6
CONTINUOUS
 10
7.1875
 20
-25
 11
4.375
 21
-25
  0
LINE
  8
0
 62
50
  6
CONTINUOUS
 10
4.375
 20
-25
 11
4.375
 21
-23.125
  0
LINE
  8
0
 62
50
  6
CONTINUOUS
 10
4.375
 20
-23.125
 11
7.1875
 21
-23.125
  0
LINE
  8
0
 62
50
  6
CONTINUOUS
 10
9.0625
 20
-21.25
 11
9.0625
 21
-3.75
  0
LINE
  8
0
 62
50
  6
CONTINUOUS
 10
7.1875
 20
-1.875
 11
-7.1875
 21
-1.875
  0
ARC
  8
0
 62
50
  6
CONTINUOUS
 10
-7.1875000000000009
 20
-21.25
 40
1.875
 50
180
 51
270
  0
ARC
  8
0
 62
50
  6
CONTINUOUS
 10
7.1875000000000009
 20
-21.25
 40
1.875
 50
270
 51
0
  0
ARC
  8
0
 62
50
  6
CONTINUOUS
 10
7.1875
 20
-3.75
 40
1.875
 50
0
 51
90
  0
ARC
  8
0
 62
50
  6
CONTINUOUS
 10
-7.1875000000000009
 20
-3.75
 40
1.875
 50
90
 51
180
  0
ARC
  8
0
 62
50
  6
CONTINUOUS
 10
-7.1875000000000009
 20
-3.75
 40
3.75
 50
90
 51
180
  0
ARC
  8
0
 62
50
  6
CONTINUOUS
 10
-7.1875000000000009
 20
-21.25
 40
3.75
 50
180
 51
270
  0
ARC
  8
0
 62
50
  6
CONTINUOUS
 10
7.1875000000000009
 20
-21.25
 40
3.75
 50
270
 51
0
  0
ARC
  8
0
 62
50
  6
CONTINUOUS
 10
7.1875000000000009
 20
-3.75
 40
3.75
 50
0
 51
90
  0
ENDBLK
  0
ENDSEC
  0
SECTION
  2
ENTITIES
  0
INSERT
  8
0
 62
50
  6
CONTINUOUS
  2
3_42_PROFIL_CM
 10
0
 20
0
 41
1.0
 42
1.0
 50
0.0
  0
ENDSEC
  0
EOF
