  0
SECTION
  2
HEADER
  9
$ACADVER
  1
AC1009
  9
$EXTMIN
 10
-10.294117647058824
 20
-25
  9
$EXTMAX
 10
10.294117647058824
 20
0
  9
$TEXTSTYLE
  7
STANDARD
  9
$DIMLFAC
 40
1
  9
$REGENMODE
 70
1
  9
$DRAGMODE
 70
2
  9
$DIMASO
 70
1
  9
$LTSCALE
 40
1.0000000000
  0
ENDSEC
  0
SECTION
  2
TABLES
  0
TABLE
  2
LTYPE
 70
1
  0
LTYPE
  2
CONTINUOUS
 70
64
  3
CONTINUOUS
 72
65
 73
0
 40
0.0000000000
  0
ENDTAB
  0
TABLE
  2
LAYER
 70
1
  0
LAYER
  2
0
 70
0
 62
2
  6
CONTINUOUS
  0
ENDTAB
  0
TABLE
  2
STYLE
 70
0
  0
STYLE
  2
Standard
 70
0
 40
0
 41
1
 50
0
 71
0
 42
2.5
  3
txt
  4

  0
ENDTAB
  0
ENDSEC
  0
SECTION
  2
BLOCKS
  0
BLOCK
  8
0
 62
50
  6
CONTINUOUS
  2
3_40_PROFIL_CS
 70
0
 10
0
 20
0
  0
LINE
  8
0
 62
50
  6
CONTINUOUS
 10
-3.8235294117647061
 20
-20.588235294117649
 11
-2.9411764705882355
 21
-20.588235294117649
  0
LINE
  8
0
 62
50
  6
CONTINUOUS
 10
-2.9411764705882355
 20
-20.588235294117649
 11
-2.9411764705882355
 21
-23.823529411764707
  0
LINE
  8
0
 62
50
  6
CONTINUOUS
 10
-4.1176470588235299
 20
-25
 11
-9.117647058823529
 21
-25
  0
LINE
  8
0
 62
50
  6
CONTINUOUS
 10
-10.294117647058824
 20
-23.823529411764707
 11
-10.294117647058824
 21
-1.1764705882352942
  0
LINE
  8
0
 62
50
  6
CONTINUOUS
 10
-9.117647058823529
 20
0
 11
9.117647058823529
 21
0
  0
LINE
  8
0
 62
50
  6
CONTINUOUS
 10
10.294117647058824
 20
-1.1764705882352942
 11
10.294117647058824
 21
-23.823529411764707
  0
LINE
  8
0
 62
50
  6
CONTINUOUS
 10
9.117647058823529
 20
-25
 11
4.1176470588235299
 21
-25
  0
LINE
  8
0
 62
50
  6
CONTINUOUS
 10
2.9411764705882355
 20
-23.823529411764707
 11
2.9411764705882355
 21
-20.588235294117649
  0
LINE
  8
0
 62
50
  6
CONTINUOUS
 10
2.9411764705882355
 20
-20.588235294117649
 11
3.8235294117647061
 21
-20.588235294117649
  0
ARC
  8
0
 62
50
  6
CONTINUOUS
 10
4.1176470588235299
 20
-23.823529411764707
 40
1.1764705882352942
 50
180
 51
270
  0
ARC
  8
0
 62
50
  6
CONTINUOUS
 10
-4.1176470588235299
 20
-23.823529411764707
 40
1.1764705882352942
 50
270
 51
0
  0
ARC
  8
0
 62
50
  6
CONTINUOUS
 10
-9.117647058823529
 20
-23.823529411764707
 40
1.1764705882352942
 50
180
 51
270
  0
ARC
  8
0
 62
50
  6
CONTINUOUS
 10
-9.117647058823529
 20
-1.1764705882352942
 40
1.1764705882352942
 50
90
 51
180
  0
ARC
  8
0
 62
50
  6
CONTINUOUS
 10
9.117647058823529
 20
-1.1764705882352942
 40
1.1764705882352942
 50
0
 51
90
  0
ARC
  8
0
 62
50
  6
CONTINUOUS
 10
9.117647058823529
 20
-23.823529411764707
 40
1.1764705882352942
 50
270
 51
0
  0
ARC
  8
0
 62
50
  6
CONTINUOUS
 10
-4.1176470588235299
 20
-23.823529411764707
 40
0.29411764705882354
 50
270.00000000000006
 51
0
  0
LINE
  8
0
 62
50
  6
CONTINUOUS
 10
-4.1176470588235299
 20
-24.117647058823529
 11
-9.117647058823529
 21
-24.117647058823529
  0
ARC
  8
0
 62
50
  6
CONTINUOUS
 10
-9.117647058823529
 20
-23.823529411764707
 40
0.29411764705882354
 50
180.00000000000006
 51
270.00000000000006
  0
LINE
  8
0
 62
50
  6
CONTINUOUS
 10
-9.4117647058823533
 20
-23.823529411764707
 11
-9.4117647058823533
 21
-1.1764705882352942
  0
ARC
  8
0
 62
50
  6
CONTINUOUS
 10
-9.117647058823529
 20
-1.1764705882352942
 40
0.29411764705882354
 50
90.000000000000028
 51
180.00000000000006
  0
LINE
  8
0
 62
50
  6
CONTINUOUS
 10
-9.117647058823529
 20
-0.88235294117647056
 11
9.117647058823529
 21
-0.88235294117647056
  0
ARC
  8
0
 62
50
  6
CONTINUOUS
 10
9.117647058823529
 20
-1.1764705882352942
 40
0.29411764705882354
 50
0
 51
90.000000000000028
  0
LINE
  8
0
 62
50
  6
CONTINUOUS
 10
9.4117647058823533
 20
-1.1764705882352939
 11
9.4117647058823533
 21
-23.823529411764707
  0
ARC
  8
0
 62
50
  6
CONTINUOUS
 10
9.117647058823529
 20
-23.823529411764707
 40
0.29411764705882354
 50
270.00000000000006
 51
0
  0
LINE
  8
0
 62
50
  6
CONTINUOUS
 10
9.117647058823529
 20
-24.117647058823529
 11
4.117647058823529
 21
-24.117647058823529
  0
ARC
  8
0
 62
50
  6
CONTINUOUS
 10
4.1176470588235299
 20
-23.823529411764707
 40
0.29411764705882354
 50
180.00000000000006
 51
270.00000000000006
  0
LINE
  8
0
 62
50
  6
CONTINUOUS
 10
3.8235294117647061
 20
-23.823529411764707
 11
3.8235294117647061
 21
-20.588235294117649
  0
LINE
  8
0
 62
50
  6
CONTINUOUS
 10
-3.8235294117647061
 20
-20.588235294117649
 11
-3.8235294117647061
 21
-23.823529411764707
  0
ENDBLK
  0
ENDSEC
  0
SECTION
  2
ENTITIES
  0
INSERT
  8
0
 62
50
  6
CONTINUOUS
  2
3_40_PROFIL_CS
 10
0
 20
0
 41
1.0
 42
1.0
 50
0.0
  0
ENDSEC
  0
EOF
