  0
SECTION
  2
HEADER
  9
$ACADVER
  1
AC1009
  9
$EXTMIN
 10
-11.088709677419354
 20
-25
  9
$EXTMAX
 10
11.088709677419354
 20
0
  9
$TEXTSTYLE
  7
STANDARD
  9
$DIMLFAC
 40
1
  9
$REGENMODE
 70
1
  9
$DRAGMODE
 70
2
  9
$DIMASO
 70
1
  9
$LTSCALE
 40
1.0000000000
  0
ENDSEC
  0
SECTION
  2
TABLES
  0
TABLE
  2
LTYPE
 70
1
  0
LTYPE
  2
CONTINUOUS
 70
64
  3
CONTINUOUS
 72
65
 73
0
 40
0.0000000000
  0
ENDTAB
  0
TABLE
  2
LAYER
 70
1
  0
LAYER
  2
0
 70
0
 62
2
  6
CONTINUOUS
  0
ENDTAB
  0
TABLE
  2
STYLE
 70
0
  0
STYLE
  2
Standard
 70
0
 40
0
 41
1
 50
0
 71
0
 42
2.5
  3
txt
  4

  0
ENDTAB
  0
ENDSEC
  0
SECTION
  2
BLOCKS
  0
BLOCK
  8
0
 62
50
  6
CONTINUOUS
  2
3_40_PROFIL_CR
 70
0
 10
0
 20
0
  0
LINE
  8
0
 62
50
  6
CONTINUOUS
 10
-10.282258064516128
 20
-1.6129032258064515
 11
-10.282258064516128
 21
-23.387096774193548
  0
LINE
  8
0
 62
50
  6
CONTINUOUS
 10
-9.4758064516129021
 20
-24.193548387096772
 11
-5.443548387096774
 21
-24.193548387096772
  0
LINE
  8
0
 62
50
  6
CONTINUOUS
 10
-4.637096774193548
 20
-23.387096774193548
 11
-4.637096774193548
 21
-21.774193548387096
  0
LINE
  8
0
 62
50
  6
CONTINUOUS
 10
-4.637096774193548
 20
-21.774193548387096
 11
-3.8306451612903225
 21
-21.774193548387096
  0
LINE
  8
0
 62
50
  6
CONTINUOUS
 10
-3.8306451612903225
 20
-21.774193548387096
 11
-3.8306451612903225
 21
-23.387096774193548
  0
LINE
  8
0
 62
50
  6
CONTINUOUS
 10
-5.443548387096774
 20
-25
 11
-9.4758064516129021
 21
-25
  0
LINE
  8
0
 62
50
  6
CONTINUOUS
 10
-11.088709677419354
 20
-23.387096774193548
 11
-11.088709677419354
 21
-1.6129032258064515
  0
LINE
  8
0
 62
50
  6
CONTINUOUS
 10
-9.4758064516129021
 20
0
 11
9.4758064516129021
 21
0
  0
LINE
  8
0
 62
50
  6
CONTINUOUS
 10
11.088709677419354
 20
-1.6129032258064515
 11
11.088709677419354
 21
-23.387096774193548
  0
LINE
  8
0
 62
50
  6
CONTINUOUS
 10
9.4758064516129021
 20
-25
 11
5.443548387096774
 21
-25
  0
LINE
  8
0
 62
50
  6
CONTINUOUS
 10
3.8306451612903225
 20
-23.387096774193548
 11
3.8306451612903225
 21
-21.774193548387096
  0
LINE
  8
0
 62
50
  6
CONTINUOUS
 10
3.8306451612903225
 20
-21.774193548387096
 11
4.637096774193548
 21
-21.774193548387096
  0
LINE
  8
0
 62
50
  6
CONTINUOUS
 10
4.637096774193548
 20
-21.774193548387096
 11
4.637096774193548
 21
-23.387096774193548
  0
LINE
  8
0
 62
50
  6
CONTINUOUS
 10
5.443548387096774
 20
-24.193548387096772
 11
9.4758064516129021
 21
-24.193548387096772
  0
LINE
  8
0
 62
50
  6
CONTINUOUS
 10
10.282258064516128
 20
-23.387096774193548
 11
10.282258064516128
 21
-1.6129032258064515
  0
LINE
  8
0
 62
50
  6
CONTINUOUS
 10
9.4758064516129021
 20
-0.80645161290322576
 11
-9.4758064516129021
 21
-0.80645161290322576
  0
ARC
  8
0
 62
50
  6
CONTINUOUS
 10
-9.4758064516129039
 20
-23.387096774193548
 40
0.80645161290322576
 50
180
 51
270
  0
ARC
  8
0
 62
50
  6
CONTINUOUS
 10
-5.443548387096774
 20
-23.387096774193548
 40
0.80645161290322576
 50
270
 51
0
  0
ARC
  8
0
 62
50
  6
CONTINUOUS
 10
-9.4758064516129039
 20
-1.6129032258064515
 40
0.80645161290322576
 50
90
 51
180
  0
ARC
  8
0
 62
50
  6
CONTINUOUS
 10
9.4758064516129039
 20
-1.6129032258064515
 40
0.80645161290322576
 50
0
 51
90
  0
ARC
  8
0
 62
50
  6
CONTINUOUS
 10
9.4758064516129039
 20
-23.387096774193548
 40
0.80645161290322576
 50
270
 51
0
  0
ARC
  8
0
 62
50
  6
CONTINUOUS
 10
5.443548387096774
 20
-23.387096774193548
 40
0.80645161290322576
 50
180
 51
270
  0
ARC
  8
0
 62
50
  6
CONTINUOUS
 10
5.443548387096774
 20
-23.387096774193548
 40
1.6129032258064515
 50
180
 51
270
  0
ARC
  8
0
 62
50
  6
CONTINUOUS
 10
-5.443548387096774
 20
-23.387096774193548
 40
1.6129032258064515
 50
270
 51
0
  0
ARC
  8
0
 62
50
  6
CONTINUOUS
 10
-9.4758064516129021
 20
-23.387096774193548
 40
1.6129032258064515
 50
180
 51
270
  0
ARC
  8
0
 62
50
  6
CONTINUOUS
 10
-9.4758064516129021
 20
-1.6129032258064515
 40
1.6129032258064515
 50
90
 51
180
  0
ARC
  8
0
 62
50
  6
CONTINUOUS
 10
9.4758064516129021
 20
-1.6129032258064515
 40
1.6129032258064515
 50
0
 51
90
  0
ARC
  8
0
 62
50
  6
CONTINUOUS
 10
9.4758064516129021
 20
-23.387096774193548
 40
1.6129032258064515
 50
270
 51
0
  0
ENDBLK
  0
ENDSEC
  0
SECTION
  2
ENTITIES
  0
INSERT
  8
0
 62
50
  6
CONTINUOUS
  2
3_40_PROFIL_CR
 10
0
 20
0
 41
1.0
 42
1.0
 50
0.0
  0
ENDSEC
  0
EOF
