  0
SECTION
  2
HEADER
  9
$ACADVER
  1
AC1009
  9
$EXTMIN
 10
-12.5
 20
-25
  9
$EXTMAX
 10
12.5
 20
0
  9
$TEXTSTYLE
  7
STANDARD
  9
$DIMLFAC
 40
1
  9
$REGENMODE
 70
1
  9
$DRAGMODE
 70
2
  9
$DIMASO
 70
1
  9
$LTSCALE
 40
1.0000000000
  0
ENDSEC
  0
SECTION
  2
TABLES
  0
TABLE
  2
LTYPE
 70
1
  0
LTYPE
  2
CONTINUOUS
 70
64
  3
CONTINUOUS
 72
65
 73
0
 40
0.0000000000
  0
ENDTAB
  0
TABLE
  2
LAYER
 70
1
  0
LAYER
  2
0
 70
0
 62
2
  6
CONTINUOUS
  0
ENDTAB
  0
TABLE
  2
STYLE
 70
0
  0
STYLE
  2
Standard
 70
0
 40
0
 41
1
 50
0
 71
0
 42
2.5
  3
txt
  4

  0
ENDTAB
  0
ENDSEC
  0
SECTION
  2
BLOCKS
  0
BLOCK
  8
0
 62
50
  6
CONTINUOUS
  2
3_40_PROFIL_C
 70
0
 10
0
 20
0
  0
ARC
  8
0
 62
50
  6
CONTINUOUS
 10
-9.6428571428571423
 20
-2.8571428571428572
 40
2.8571428571428572
 50
90
 51
180
  0
LINE
  8
0
 62
50
  6
CONTINUOUS
 10
-12.5
 20
-2.8571428571428572
 11
-12.5
 21
-22.142857142857142
  0
ARC
  8
0
 62
50
  6
CONTINUOUS
 10
-9.6428571428571423
 20
-22.142857142857142
 40
2.8571428571428572
 50
180
 51
270
  0
LINE
  8
0
 62
50
  6
CONTINUOUS
 10
-9.6428571428571423
 20
-25
 11
-4.6428571428571432
 21
-25
  0
LINE
  8
0
 62
50
  6
CONTINUOUS
 10
-4.6428571428571432
 20
-25
 11
-4.6428571428571432
 21
-23.571428571428573
  0
LINE
  8
0
 62
50
  6
CONTINUOUS
 10
-4.6428571428571432
 20
-23.571428571428573
 11
-9.6428571428571423
 21
-23.571428571428573
  0
ARC
  8
0
 62
50
  6
CONTINUOUS
 10
-9.6428571428571423
 20
-22.142857142857142
 40
1.4285714285714286
 50
180
 51
270
  0
LINE
  8
0
 62
50
  6
CONTINUOUS
 10
-11.071428571428571
 20
-22.142857142857142
 11
-11.071428571428571
 21
-2.8571428571428572
  0
ARC
  8
0
 62
50
  6
CONTINUOUS
 10
-9.6428571428571423
 20
-2.8571428571428572
 40
1.4285714285714286
 50
90
 51
180
  0
LINE
  8
0
 62
50
  6
CONTINUOUS
 10
-9.6428571428571423
 20
-1.4285714285714286
 11
9.6428571428571423
 21
-1.4285714285714286
  0
ARC
  8
0
 62
50
  6
CONTINUOUS
 10
9.6428571428571423
 20
-2.8571428571428572
 40
1.4285714285714286
 50
0
 51
90
  0
LINE
  8
0
 62
50
  6
CONTINUOUS
 10
11.071428571428571
 20
-2.8571428571428572
 11
11.071428571428571
 21
-22.142857142857142
  0
ARC
  8
0
 62
50
  6
CONTINUOUS
 10
9.6428571428571423
 20
-22.142857142857142
 40
1.4285714285714286
 50
270
 51
0
  0
LINE
  8
0
 62
50
  6
CONTINUOUS
 10
9.6428571428571423
 20
-23.571428571428573
 11
4.6428571428571432
 21
-23.571428571428573
  0
LINE
  8
0
 62
50
  6
CONTINUOUS
 10
4.6428571428571432
 20
-23.571428571428573
 11
4.6428571428571432
 21
-25
  0
LINE
  8
0
 62
50
  6
CONTINUOUS
 10
4.6428571428571432
 20
-25
 11
9.6428571428571423
 21
-25
  0
ARC
  8
0
 62
50
  6
CONTINUOUS
 10
9.6428571428571423
 20
-22.142857142857142
 40
2.8571428571428572
 50
270
 51
0
  0
LINE
  8
0
 62
50
  6
CONTINUOUS
 10
12.5
 20
-22.142857142857142
 11
12.5
 21
-2.8571428571428572
  0
ARC
  8
0
 62
50
  6
CONTINUOUS
 10
9.6428571428571423
 20
-2.8571428571428572
 40
2.8571428571428572
 50
0
 51
90
  0
LINE
  8
0
 62
50
  6
CONTINUOUS
 10
9.6428571428571423
 20
0
 11
-9.6428571428571423
 21
0
  0
ENDBLK
  0
ENDSEC
  0
SECTION
  2
ENTITIES
  0
INSERT
  8
0
 62
50
  6
CONTINUOUS
  2
3_40_PROFIL_C
 10
0
 20
0
 41
1.0
 42
1.0
 50
0.0
  0
ENDSEC
  0
EOF
