  0
SECTION
  2
HEADER
  9
$ACADVER
  1
AC1009
  9
$EXTMIN
 10
-12.5
 20
-13.970588235294116
  9
$EXTMAX
 10
12.5
 20
0
  9
$TEXTSTYLE
  7
STANDARD
  9
$DIMLFAC
 40
1
  9
$REGENMODE
 70
1
  9
$DRAGMODE
 70
2
  9
$DIMASO
 70
1
  9
$LTSCALE
 40
1.0000000000
  0
ENDSEC
  0
SECTION
  2
TABLES
  0
TABLE
  2
LTYPE
 70
1
  0
LTYPE
  2
CONTINUOUS
 70
64
  3
CONTINUOUS
 72
65
 73
0
 40
0.0000000000
  0
ENDTAB
  0
TABLE
  2
LAYER
 70
1
  0
LAYER
  2
0
 70
0
 62
2
  6
CONTINUOUS
  0
ENDTAB
  0
TABLE
  2
STYLE
 70
0
  0
STYLE
  2
Standard
 70
0
 40
0
 41
1
 50
0
 71
0
 42
2.5
  3
txt
  4

  0
ENDTAB
  0
ENDSEC
  0
SECTION
  2
BLOCKS
  0
BLOCK
  8
0
 62
50
  6
CONTINUOUS
  2
3_40_PROFIL_CK
 70
0
 10
0
 20
0
  0
LINE
  8
0
 62
50
  6
CONTINUOUS
 10
10.294117647058822
 20
0
 11
-10.294117647058822
 21
0
  0
LINE
  8
0
 62
50
  6
CONTINUOUS
 10
-12.499999999999998
 20
-2.2058823529411762
 11
-12.499999999999998
 21
-11.76470588235294
  0
LINE
  8
0
 62
50
  6
CONTINUOUS
 10
-10.294117647058822
 20
-13.970588235294116
 11
-6.2499999999999991
 21
-13.970588235294116
  0
LINE
  8
0
 62
50
  6
CONTINUOUS
 10
-6.2499999999999991
 20
-13.970588235294116
 11
-6.2499999999999991
 21
-12.499999999999998
  0
LINE
  8
0
 62
50
  6
CONTINUOUS
 10
-6.2499999999999991
 20
-12.499999999999998
 11
-10.294117647058822
 21
-12.499999999999998
  0
LINE
  8
0
 62
50
  6
CONTINUOUS
 10
-11.029411764705882
 20
-11.76470588235294
 11
-11.029411764705882
 21
-2.2058823529411762
  0
LINE
  8
0
 62
50
  6
CONTINUOUS
 10
-10.294117647058822
 20
-1.4705882352941175
 11
10.294117647058822
 21
-1.4705882352941175
  0
LINE
  8
0
 62
50
  6
CONTINUOUS
 10
11.029411764705882
 20
-2.2058823529411762
 11
11.029411764705882
 21
-11.76470588235294
  0
LINE
  8
0
 62
50
  6
CONTINUOUS
 10
10.294117647058822
 20
-12.499999999999998
 11
6.2499999999999991
 21
-12.499999999999998
  0
LINE
  8
0
 62
50
  6
CONTINUOUS
 10
6.2499999999999991
 20
-12.499999999999998
 11
6.2499999999999991
 21
-13.970588235294116
  0
LINE
  8
0
 62
50
  6
CONTINUOUS
 10
6.2499999999999991
 20
-13.970588235294116
 11
10.294117647058822
 21
-13.970588235294116
  0
LINE
  8
0
 62
50
  6
CONTINUOUS
 10
12.499999999999998
 20
-11.76470588235294
 11
12.499999999999998
 21
-2.2058823529411762
  0
ARC
  8
0
 62
50
  6
CONTINUOUS
 10
-10.294117647058824
 20
-11.76470588235294
 40
0.73529411764705876
 50
180
 51
270
  0
ARC
  8
0
 62
50
  6
CONTINUOUS
 10
10.294117647058824
 20
-11.76470588235294
 40
0.73529411764705876
 50
270
 51
0
  0
ARC
  8
0
 62
50
  6
CONTINUOUS
 10
-10.294117647058824
 20
-2.2058823529411762
 40
0.73529411764705876
 50
90
 51
180
  0
ARC
  8
0
 62
50
  6
CONTINUOUS
 10
10.294117647058824
 20
-2.2058823529411762
 40
0.73529411764705876
 50
0
 51
90
  0
ARC
  8
0
 62
50
  6
CONTINUOUS
 10
-10.294117647058824
 20
-11.76470588235294
 40
2.2058823529411762
 50
180
 51
270
  0
ARC
  8
0
 62
50
  6
CONTINUOUS
 10
10.294117647058824
 20
-11.76470588235294
 40
2.2058823529411762
 50
270
 51
0
  0
ARC
  8
0
 62
50
  6
CONTINUOUS
 10
-10.294117647058824
 20
-2.2058823529411762
 40
2.2058823529411762
 50
90
 51
180
  0
ARC
  8
0
 62
50
  6
CONTINUOUS
 10
10.294117647058824
 20
-2.2058823529411762
 40
2.2058823529411762
 50
0
 51
90
  0
ENDBLK
  0
ENDSEC
  0
SECTION
  2
ENTITIES
  0
INSERT
  8
0
 62
50
  6
CONTINUOUS
  2
3_40_PROFIL_CK
 10
0
 20
0
 41
1.0
 42
1.0
 50
0.0
  0
ENDSEC
  0
EOF
