  0
SECTION
  2
HEADER
  9
$ACADVER
  1
AC1009
  9
$EXTMIN
 10
-6.8518518518518512
 20
-11.666666666666666
  9
$EXTMAX
 10
18.148148148148149
 20
3.2407407407407405
  9
$TEXTSTYLE
  7
STANDARD
  9
$DIMLFAC
 40
1
  9
$REGENMODE
 70
1
  9
$DRAGMODE
 70
2
  9
$DIMASO
 70
1
  9
$LTSCALE
 40
1.0000000000
  0
ENDSEC
  0
SECTION
  2
TABLES
  0
TABLE
  2
LTYPE
 70
2
  0
LTYPE
  2
CONTINUOUS
 70
64
  3
CONTINUOUS
 72
65
 73
0
 40
0.0000000000
  0
LTYPE
  2
DASHDOT
 70
64
  3
DASHDOT
 72
65
 73
4
 40
1.0000000000
 49
0.5000000000
 49
-0.2500000000
 49
0.0000000000
 49
-0.2500000000
  0
ENDTAB
  0
TABLE
  2
LAYER
 70
2
  0
LAYER
  2
0
 70
0
 62
2
  6
CONTINUOUS
  0
LAYER
  2
249
 70
0
 62
2
  6
CONTINUOUS
  0
ENDTAB
  0
TABLE
  2
STYLE
 70
0
  0
STYLE
  2
Standard
 70
0
 40
0
 41
1
 50
0
 71
0
 42
2.5
  3
txt
  4

  0
ENDTAB
  0
ENDSEC
  0
SECTION
  2
BLOCKS
  0
BLOCK
  8
0
 62
5
  6
CONTINUOUS
  2
TELL_1
 70
0
 10
1.0092592592592591e-089
 20
-8.6111111111111107
  0
ARC
  8
0
 62
50
  6
CONTINUOUS
 10
-3.9814814814814818
 20
-8.6111111111111107
 40
0.83333333333333326
 50
270
 51
90
  0
LINE
  8
0
 62
50
  6
CONTINUOUS
 10
-3.9814814814814814
 20
-9.4444444444444446
 11
-4.9074074074074074
 21
-9.4444444444444446
  0
ARC
  8
0
 62
50
  6
CONTINUOUS
 10
-4.9074074074074066
 20
-8.6111111111111107
 40
0.83333333333333326
 50
90
 51
270
  0
LINE
  8
0
 62
50
  6
CONTINUOUS
 10
-4.9074074074074074
 20
-7.7777777777777777
 11
-3.9814814814814814
 21
-7.7777777777777777
  0
LINE
  8
0
 62
5
  6
DASHDOT
 10
-4.4444444444444446
 20
-9.8148148148148149
 11
-4.4444444444444446
 21
-7.4074074074074066
  0
ARC
  8
0
 62
50
  6
CONTINUOUS
 10
3.9814814814814818
 20
-8.6111111111111107
 40
0.83333333333333326
 50
90
 51
270
  0
LINE
  8
0
 62
50
  6
CONTINUOUS
 10
3.9814814814814814
 20
-9.4444444444444446
 11
4.9074074074074074
 21
-9.4444444444444446
  0
ARC
  8
0
 62
50
  6
CONTINUOUS
 10
4.9074074074074066
 20
-8.6111111111111107
 40
0.83333333333333326
 50
270
 51
90
  0
LINE
  8
0
 62
50
  6
CONTINUOUS
 10
4.9074074074074074
 20
-7.7777777777777777
 11
3.9814814814814814
 21
-7.7777777777777777
  0
LINE
  8
0
 62
5
  6
DASHDOT
 10
4.4444444444444446
 20
-9.8148148148148149
 11
4.4444444444444446
 21
-7.4074074074074066
  0
LINE
  8
0
 62
50
  6
CONTINUOUS
 10
5.4123143163154914
 20
-5.5555555555555554
 11
6.481481481481481
 21
-7.4074074074074412
  0
LINE
  8
0
 62
50
  6
CONTINUOUS
 10
6.481481481481481
 20
-7.4074074074074412
 11
6.481481481481481
 21
-9.8148148148147794
  0
LINE
  8
0
 62
50
  6
CONTINUOUS
 10
6.481481481481481
 20
-9.8148148148147794
 11
5.4123143163154914
 21
-11.666666666666666
  0
LINE
  8
0
 62
50
  6
CONTINUOUS
 10
5.4123143163154914
 20
-11.666666666666666
 11
-5.4123143163155083
 21
-11.666666666666666
  0
LINE
  8
0
 62
50
  6
CONTINUOUS
 10
-5.4123143163155083
 20
-11.666666666666666
 11
-6.481481481481481
 21
-9.8148148148148149
  0
LINE
  8
0
 62
50
  6
CONTINUOUS
 10
-6.481481481481481
 20
-9.8148148148148149
 11
-6.481481481481481
 21
-7.4074074074074412
  0
LINE
  8
0
 62
50
  6
CONTINUOUS
 10
-6.481481481481481
 20
-7.4074074074074412
 11
-5.4123143163154914
 21
-5.5555555555555554
  0
LINE
  8
0
 62
50
  6
CONTINUOUS
 10
-5.4123143163154914
 20
-5.5555555555555554
 11
5.4123143163154914
 21
-5.5555555555555554
  0
LINE
  8
0
 62
5
  6
DASHDOT
 10
-6.8518518518518512
 20
-8.6111111111111107
 11
6.8518518518518512
 21
-8.6111111111111107
  0
LINE
  8
0
 62
50
  6
CONTINUOUS
 10
0.69495865735788298
 20
-7.4074074074074066
 11
1.389917314715766
 21
-8.6111111111111107
  0
LINE
  8
0
 62
50
  6
CONTINUOUS
 10
1.389917314715766
 20
-8.6111111111111107
 11
0.69495865735788298
 21
-9.8148148148148149
  0
LINE
  8
0
 62
50
  6
CONTINUOUS
 10
0.69495865735788298
 20
-9.8148148148148149
 11
-0.69495865735788298
 21
-9.8148148148148149
  0
LINE
  8
0
 62
50
  6
CONTINUOUS
 10
-0.69495865735788298
 20
-9.8148148148148149
 11
-1.3899173147157646
 21
-8.6111111111111107
  0
LINE
  8
0
 62
50
  6
CONTINUOUS
 10
-1.3899173147157646
 20
-8.6111111111111107
 11
-0.69495865735788298
 21
-7.4074074074074066
  0
LINE
  8
0
 62
50
  6
CONTINUOUS
 10
-0.69495865735788298
 20
-7.4074074074074066
 11
0.69495865735788298
 21
-7.4074074074074066
  0
CIRCLE
  8
0
 62
50
  6
CONTINUOUS
 10
0
 20
-8.6111111111111107
 40
1.2037037037037037
  0
LINE
  8
0
 62
5
  6
DASHDOT
 10
1.0092592592592591e-089
 20
-10.657179782513591
 11
2.0749772375106186e-089
 21
-6.5780741694731049
  0
CIRCLE
  8
0
 62
5
  6
CONTINUOUS
 10
1.0092592592592591e-089
 20
-8.6111111111111107
 40
1.7124958184175225
  0
ENDBLK
  0
BLOCK
  8
0
 62
5
  6
CONTINUOUS
  2
3_27
 70
0
 10
0
 20
0
  0
LINE
  8
0
 62
50
  6
CONTINUOUS
 10
-6.481481481481481
 20
0
 11
-6.481481481481481
 21
0.44444444444444442
  0
LINE
  8
0
 62
50
  6
CONTINUOUS
 10
-6.481481481481481
 20
0.44444444444444442
 11
6.481481481481481
 21
0.44444444444444442
  0
LINE
  8
0
 62
50
  6
CONTINUOUS
 10
6.481481481481481
 20
0.44444444444444442
 11
6.481481481481481
 21
0
  0
LINE
  8
0
 62
50
  6
CONTINUOUS
 10
6.481481481481481
 20
0
 11
-6.481481481481481
 21
0
  0
LINE
  8
0
 62
50
  6
CONTINUOUS
 10
-5.4123143163154914
 20
0
 11
-5.4123143163154914
 21
0.44444444444444442
  0
LINE
  8
0
 62
50
  6
CONTINUOUS
 10
5.4123143163154914
 20
0
 11
5.4123143163154914
 21
0.44444444444444442
  0
LINE
  8
0
 62
5
  6
DASHDOT
 10
-4.4444444444444446
 20
-0.37037037037037035
 11
-4.4444444444444446
 21
0.81481481481481488
  0
LINE
  8
0
 62
5
  6
DASHDOT
 10
4.4444444444444446
 20
-0.37037037037037035
 11
4.4444444444444446
 21
0.81481481481481488
  0
LINE
  8
0
 62
5
  6
DASHDOT
 10
-1.4753413906823735e-090
 20
3.2407407407407405
 11
0
 21
-0.37037037037037035
  0
LINE
  8
249
 62
50
  6
CONTINUOUS
 10
-1.3888888888888888
 20
0.62962962962962954
 11
-1.3888888888888891
 21
1.2314814814814807
  0
LINE
  8
249
 62
50
  6
CONTINUOUS
 10
-0.65015975151851857
 20
0.62962962962962954
 11
-0.65015975151901362
 21
1.2314814814814812
  0
ARC
  8
249
 62
50
  6
CONTINUOUS
 10
2.8359768922644002e-016
 20
0.72222222222222188
 40
1.9444444444444444
 50
90
 51
109.53410317272449
  0
ARC
  8
249
 62
50
  6
CONTINUOUS
 10
-1.0416666666666667
 20
1.9259259259259249
 40
0.7407407407407407
 50
58.09352083212309
 51
117.95318688338114
  0
LINE
  8
249
 62
50
  6
CONTINUOUS
 10
-1.3888888888888893
 20
2.5802450937547476
 11
-1.3888888888888891
 21
1.2314814814814807
  0
LINE
  8
249
 62
50
  6
CONTINUOUS
 10
-0.6501597515185189
 20
2.5547495740056725
 11
-0.65015975151901362
 21
1.2314814814814812
  0
LINE
  8
249
 62
50
  6
CONTINUOUS
 10
-1.0416666666666672
 20
2.6666666666666661
 11
-4.6084624499296501e-016
 21
2.6666666666666661
  0
LINE
  8
249
 62
50
  6
CONTINUOUS
 10
1.3888888888888888
 20
0.62962962962962954
 11
1.3888888888888886
 21
1.2314814814814818
  0
LINE
  8
249
 62
50
  6
CONTINUOUS
 10
0.65015975151851846
 20
0.62962962962962954
 11
0.65015975151901306
 21
1.2314814814814816
  0
ARC
  8
249
 62
50
  6
CONTINUOUS
 10
2.8359768922644002e-016
 20
0.72222222222222188
 40
1.9444444444444444
 50
70.465896827275515
 51
90
  0
ARC
  8
249
 62
50
  6
CONTINUOUS
 10
1.0416666666666665
 20
1.9259259259259258
 40
0.7407407407407407
 50
62.046813116618864
 51
121.90647916787691
  0
LINE
  8
249
 62
50
  6
CONTINUOUS
 10
1.3888888888888884
 20
2.5802450937547485
 11
1.3888888888888886
 21
1.2314814814814818
  0
LINE
  8
249
 62
50
  6
CONTINUOUS
 10
0.65015975151851813
 20
2.5547495740056734
 11
0.65015975151901306
 21
1.2314814814814816
  0
LINE
  8
249
 62
50
  6
CONTINUOUS
 10
1.0416666666666661
 20
2.6666666666666665
 11
-4.6084624499296501e-016
 21
2.6666666666666661
  0
LINE
  8
0
 62
50
  6
CONTINUOUS
 10
-1.7124958184175225
 20
0.44444444444444442
 11
-1.2037037037037037
 21
0.62962962962962954
  0
LINE
  8
0
 62
50
  6
CONTINUOUS
 10
1.2037037037037044
 20
0.62962962962962954
 11
1.7124958184175239
 21
0.44444444444444442
  0
LINE
  8
0
 62
50
  6
CONTINUOUS
 10
-1.3888888888888888
 20
0.62962962962962954
 11
1.3888888888888886
 21
0.62962962962962954
  0
LINE
  8
0
 62
5
  6
CONTINUOUS
 10
-0.92592592592592582
 20
2.6666666666666661
 11
-0.92592592592592582
 21
1.3333333333333333
  0
LINE
  8
0
 62
5
  6
CONTINUOUS
 10
-0.92592592592592582
 20
1.3333333333333333
 11
0.92592592592592582
 21
1.3333333333333333
  0
LINE
  8
0
 62
5
  6
CONTINUOUS
 10
0.92592592592592582
 20
1.3333333333333333
 11
0.92592592592592582
 21
2.6666666666666665
  0
LINE
  8
0
 62
5
  6
CONTINUOUS
 10
-0.7407407407407407
 20
1.3333333333333333
 11
-0.7407407407407407
 21
0
  0
LINE
  8
0
 62
5
  6
CONTINUOUS
 10
0.7407407407407407
 20
1.3333333333333333
 11
0.7407407407407407
 21
0
  0
ENDBLK
  0
BLOCK
  8
0
 62
5
  6
CONTINUOUS
  2
TELL_2
 70
0
 10
15.092592592592592
 20
0
  0
LINE
  8
0
 62
50
  6
CONTINUOUS
 10
12.037037037037036
 20
0.44444444444444442
 11
18.148148148148149
 21
0.44444444444444442
  0
LINE
  8
0
 62
50
  6
CONTINUOUS
 10
18.148148148148149
 20
0.44444444444444442
 11
18.148148148148149
 21
0
  0
LINE
  8
0
 62
50
  6
CONTINUOUS
 10
18.148148148148149
 20
0
 11
12.037037037037036
 21
0
  0
LINE
  8
0
 62
50
  6
CONTINUOUS
 10
12.037037037037036
 20
0
 11
12.037037037037036
 21
0.44444444444444442
  0
LINE
  8
0
 62
50
  6
CONTINUOUS
 10
13.888888888888886
 20
0
 11
13.888888888888886
 21
0.44444444444444442
  0
LINE
  8
0
 62
50
  6
CONTINUOUS
 10
16.296296296296298
 20
0
 11
16.296296296296298
 21
0.44444444444444442
  0
LINE
  8
0
 62
5
  6
DASHDOT
 10
15.092592592592592
 20
3.2407407407407405
 11
15.092592592592592
 21
-0.37037037037037035
  0
LINE
  8
0
 62
50
  6
CONTINUOUS
 10
13.703703703703702
 20
0.62962962962962954
 11
13.703703703703702
 21
1.2314814814814807
  0
LINE
  8
0
 62
50
  6
CONTINUOUS
 10
14.442432841074075
 20
0.62962962962962954
 11
14.442432841073579
 21
1.2314814814814812
  0
ARC
  8
0
 62
50
  6
CONTINUOUS
 10
15.092592592592592
 20
0.72222222222222188
 40
1.9444444444444444
 50
90
 51
109.53410317272449
  0
ARC
  8
0
 62
50
  6
CONTINUOUS
 10
14.050925925925926
 20
1.9259259259259249
 40
0.7407407407407407
 50
58.09352083212309
 51
117.95318688338114
  0
LINE
  8
0
 62
50
  6
CONTINUOUS
 10
13.703703703703702
 20
2.5802450937547476
 11
13.703703703703702
 21
1.2314814814814807
  0
LINE
  8
0
 62
50
  6
CONTINUOUS
 10
14.442432841074075
 20
2.5547495740056725
 11
14.442432841073579
 21
1.2314814814814812
  0
LINE
  8
0
 62
50
  6
CONTINUOUS
 10
14.050925925925926
 20
2.6666666666666661
 11
15.092592592592592
 21
2.6666666666666661
  0
LINE
  8
0
 62
50
  6
CONTINUOUS
 10
16.481481481481481
 20
0.62962962962962954
 11
16.481481481481481
 21
1.2314814814814818
  0
LINE
  8
0
 62
50
  6
CONTINUOUS
 10
15.742752344111111
 20
0.62962962962962954
 11
15.742752344111604
 21
1.2314814814814816
  0
ARC
  8
0
 62
50
  6
CONTINUOUS
 10
15.092592592592592
 20
0.72222222222222188
 40
1.9444444444444444
 50
70.465896827275515
 51
90
  0
ARC
  8
0
 62
50
  6
CONTINUOUS
 10
16.13425925925926
 20
1.9259259259259258
 40
0.7407407407407407
 50
62.046813116618864
 51
121.90647916787691
  0
LINE
  8
0
 62
50
  6
CONTINUOUS
 10
16.481481481481481
 20
2.5802450937547485
 11
16.481481481481481
 21
1.2314814814814818
  0
LINE
  8
0
 62
50
  6
CONTINUOUS
 10
15.742752344111111
 20
2.5547495740056734
 11
15.742752344111604
 21
1.2314814814814816
  0
LINE
  8
0
 62
50
  6
CONTINUOUS
 10
16.13425925925926
 20
2.6666666666666665
 11
15.092592592592592
 21
2.6666666666666661
  0
LINE
  8
0
 62
50
  6
CONTINUOUS
 10
13.380096774175069
 20
0.44444444444444442
 11
13.888888888888888
 21
0.62962962962962954
  0
LINE
  8
0
 62
50
  6
CONTINUOUS
 10
16.296296296296294
 20
0.62962962962962954
 11
16.805088411010114
 21
0.44444444444444442
  0
LINE
  8
0
 62
50
  6
CONTINUOUS
 10
13.703703703703702
 20
0.62962962962962954
 11
16.481481481481481
 21
0.62962962962962954
  0
LINE
  8
0
 62
5
  6
CONTINUOUS
 10
14.166666666666666
 20
2.6666666666666661
 11
14.166666666666666
 21
1.3333333333333333
  0
LINE
  8
0
 62
5
  6
CONTINUOUS
 10
14.166666666666666
 20
1.3333333333333333
 11
16.018518518518519
 21
1.3333333333333333
  0
LINE
  8
0
 62
5
  6
CONTINUOUS
 10
16.018518518518519
 20
1.3333333333333333
 11
16.018518518518519
 21
2.6666666666666665
  0
LINE
  8
0
 62
5
  6
CONTINUOUS
 10
14.351851851851851
 20
1.3333333333333333
 11
14.351851851851851
 21
0
  0
LINE
  8
0
 62
5
  6
CONTINUOUS
 10
15.833333333333332
 20
1.3333333333333333
 11
15.833333333333332
 21
0
  0
ENDBLK
  0
ENDSEC
  0
SECTION
  2
ENTITIES
  0
INSERT
  8
0
 62
5
  6
CONTINUOUS
  2
TELL_1
 10
1.0092592592592591e-089
 20
-8.6111111111111107
 41
1.0
 42
1.0
 50
0.0
  0
INSERT
  8
0
 62
5
  6
CONTINUOUS
  2
3_27
 10
0
 20
0
 41
1.0
 42
1.0
 50
0.0
  0
INSERT
  8
0
 62
5
  6
CONTINUOUS
  2
TELL_2
 10
15.092592592592592
 20
0
 41
1.0
 42
1.0
 50
0.0
  0
ENDSEC
  0
EOF
