  0
SECTION
  2
HEADER
  9
$ACADVER
  1
AC1009
  9
$EXTMIN
 10
-7.03125
 20
-13.90625
  9
$EXTMAX
 10
17.96875
 20
2.1875
  9
$TEXTSTYLE
  7
STANDARD
  9
$DIMLFAC
 40
1
  9
$REGENMODE
 70
1
  9
$DRAGMODE
 70
2
  9
$DIMASO
 70
1
  9
$LTSCALE
 40
1.0000000000
  0
ENDSEC
  0
SECTION
  2
TABLES
  0
TABLE
  2
LTYPE
 70
2
  0
LTYPE
  2
CONTINUOUS
 70
64
  3
CONTINUOUS
 72
65
 73
0
 40
0.0000000000
  0
LTYPE
  2
DASHDOT
 70
64
  3
DASHDOT
 72
65
 73
4
 40
1.0000000000
 49
0.5000000000
 49
-0.2500000000
 49
0.0000000000
 49
-0.2500000000
  0
ENDTAB
  0
TABLE
  2
LAYER
 70
1
  0
LAYER
  2
0
 70
0
 62
2
  6
CONTINUOUS
  0
ENDTAB
  0
TABLE
  2
STYLE
 70
0
  0
STYLE
  2
Standard
 70
0
 40
0
 41
1
 50
0
 71
0
 42
2.5
  3
txt
  4

  0
ENDTAB
  0
ENDSEC
  0
SECTION
  2
BLOCKS
  0
BLOCK
  8
0
 62
50
  6
CONTINUOUS
  2
TELL_1
 70
0
 10
14.6875
 20
0
  0
LINE
  8
0
 62
50
  6
CONTINUOUS
 10
12.8671875
 20
1.5374074795468751
 11
12.8671875
 21
1.875
  0
LINE
  8
0
 62
50
  6
CONTINUOUS
 10
12.8671875
 20
1.875
 11
16.5078125
 21
1.875
  0
LINE
  8
0
 62
50
  6
CONTINUOUS
 10
16.5078125
 20
1.875
 11
16.5078125
 21
1.5374074795468751
  0
LINE
  8
0
 62
50
  6
CONTINUOUS
 10
12.03125
 20
0.46875
 11
17.34375
 21
0.46875
  0
LINE
  8
0
 62
50
  6
CONTINUOUS
 10
12.03125
 20
0
 11
17.34375
 21
0
  0
LINE
  8
0
 62
50
  6
CONTINUOUS
 10
11.875
 20
-2.34375
 11
11.875
 21
-0.15625
  0
LINE
  8
0
 62
50
  6
CONTINUOUS
 10
11.875
 20
-2.34375
 11
11.40625
 21
-2.34375
  0
LINE
  8
0
 62
50
  6
CONTINUOUS
 10
11.40625
 20
-2.34375
 11
11.40625
 21
-0.15625
  0
LINE
  8
0
 62
50
  6
CONTINUOUS
 10
17.96875
 20
-2.34375
 11
17.96875
 21
-0.15625
  0
LINE
  8
0
 62
50
  6
CONTINUOUS
 10
17.96875
 20
-2.34375
 11
17.5
 21
-2.34375
  0
LINE
  8
0
 62
50
  6
CONTINUOUS
 10
17.5
 20
-2.34375
 11
17.5
 21
-0.15625
  0
LINE
  8
0
 62
50
  6
CONTINUOUS
 10
11.875
 20
-0.78125
 11
11.40625
 21
-0.78125
  0
LINE
  8
0
 62
50
  6
CONTINUOUS
 10
17.96875
 20
-0.78125
 11
17.5
 21
-0.78125
  0
ARC
  8
0
 62
50
  6
CONTINUOUS
 10
17.7578125
 20
1.5374074795479364
 40
1.25
 50
180.00000000004871
 51
238.75155873780608
  0
ARC
  8
0
 62
50
  6
CONTINUOUS
 10
11.6171875
 20
1.5374074795479364
 40
1.25
 50
301.24844126219392
 51
359.99999999995129
  0
LINE
  8
0
 62
5
  6
DASHDOT
 10
14.6875
 20
-0.3125
 11
14.6875
 21
2.1875
  0
LINE
  8
0
 62
5
  6
CONTINUOUS
 10
13.1015625
 20
1.5374074795468751
 11
16.2734375
 21
1.5374074795468751
  0
ARC
  8
0
 62
50
  6
CONTINUOUS
 10
12.03125
 20
-0.15625
 40
0.15625
 50
90
 51
180
  0
ARC
  8
0
 62
50
  6
CONTINUOUS
 10
17.343749999999996
 20
-0.15625
 40
0.15625
 50
0
 51
90
  0
ARC
  8
0
 62
50
  6
CONTINUOUS
 10
12.031249999999998
 20
-0.15625
 40
0.625
 50
90
 51
180
  0
ARC
  8
0
 62
50
  6
CONTINUOUS
 10
17.34375
 20
-0.15625
 40
0.625
 50
0
 51
90
  0
ENDBLK
  0
BLOCK
  8
0
 62
50
  6
CONTINUOUS
  2
TELL_2
 70
0
 10
1.7195170996249999e-089
 20
-10.3125
  0
LINE
  8
0
 62
50
  6
CONTINUOUS
 10
-6.71875
 20
-7.03125
 11
6.71875
 21
-7.03125
  0
LINE
  8
0
 62
50
  6
CONTINUOUS
 10
6.71875
 20
-13.59375
 11
-6.71875
 21
-13.59375
  0
LINE
  8
0
 62
50
  6
CONTINUOUS
 10
6.71875
 20
-13.59375
 11
6.71875
 21
-7.03125
  0
LINE
  8
0
 62
50
  6
CONTINUOUS
 10
-6.71875
 20
-13.59375
 11
-6.71875
 21
-7.03125
  0
LINE
  8
0
 62
5
  6
CONTINUOUS
 10
-6.40625
 20
-7.65625
 11
6.40625
 21
-7.65625
  0
LINE
  8
0
 62
5
  6
CONTINUOUS
 10
6.40625
 20
-12.96875
 11
-6.40625
 21
-12.96875
  0
CIRCLE
  8
0
 62
50
  6
CONTINUOUS
 10
-4.6875000000000089
 20
-10.312500000000002
 40
0.82031249999999112
  0
CIRCLE
  8
0
 62
140
  6
CONTINUOUS
 10
4.3298697960937498e-014
 20
-10.3125
 40
2.421875
  0
CIRCLE
  8
0
 62
50
  6
CONTINUOUS
 10
4.6875000000000071
 20
-10.312499999999998
 40
0.82031250000000666
  0
LINE
  8
0
 62
5
  6
DASHDOT
 10
-4.6875000000000089
 20
-11.296874999999991
 11
-4.6875000000000089
 21
-9.3281250000000124
  0
LINE
  8
0
 62
5
  6
DASHDOT
 10
4.6875000000000071
 20
-11.296875000000007
 11
4.6875000000000071
 21
-9.3281249999999893
  0
LINE
  8
0
 62
5
  6
DASHDOT
 10
4.3298697960381105e-014
 20
-13.90625
 11
4.3298697960381105e-014
 21
-6.71875
  0
LINE
  8
0
 62
5
  6
DASHDOT
 10
-7.03125
 20
-10.3125
 11
7.03125
 21
-10.3125
  0
CIRCLE
  8
0
 62
50
  6
CONTINUOUS
 10
4.3298697960381105e-014
 20
-10.3125
 40
1.455546875
  0
ARC
  8
0
 62
5
  6
CONTINUOUS
 10
1.2640833531875e-089
 20
-10.3125
 40
1.6371093749999999
 50
174.52320445000001
 51
95.476795549900004
  0
ENDBLK
  0
BLOCK
  8
0
 62
50
  6
CONTINUOUS
  2
3_12__G_1_2___2_45_-
 70
0
 10
0
 20
0
  0
LINE
  8
0
 62
50
  6
CONTINUOUS
 10
1.8203124999999998
 20
1.875
 11
1.8203124999999998
 21
1.5374074795468751
  0
LINE
  8
0
 62
50
  6
CONTINUOUS
 10
-1.8203124999999998
 20
1.5374074795468751
 11
-1.8203124999999998
 21
1.875
  0
LINE
  8
0
 62
50
  6
CONTINUOUS
 10
-1.8203124999999998
 20
1.875
 11
1.8203124999999998
 21
1.875
  0
LINE
  8
0
 62
50
  6
CONTINUOUS
 10
-6.71875
 20
0.46875
 11
6.71875
 21
0.46875
  0
LINE
  8
0
 62
50
  6
CONTINUOUS
 10
6.71875
 20
-0.78125
 11
6.71875
 21
0.46875
  0
LINE
  8
0
 62
50
  6
CONTINUOUS
 10
-6.71875
 20
-0.78125
 11
-6.71875
 21
0.46875
  0
LINE
  8
0
 62
5
  6
CONTINUOUS
 10
-6.40625
 20
-0.15625
 11
6.40625
 21
-0.15625
  0
LINE
  8
0
 62
50
  6
CONTINUOUS
 10
6.71875
 20
-0.78125
 11
5.8166402043912129
 21
-2.34375
  0
LINE
  8
0
 62
50
  6
CONTINUOUS
 10
5.8166402043912129
 20
-2.34375
 11
-5.8166402043912102
 21
-2.34375
  0
LINE
  8
0
 62
50
  6
CONTINUOUS
 10
-5.8166402043912102
 20
-2.34375
 11
-6.71875
 21
-0.78125
  0
ARC
  8
0
 62
50
  6
CONTINUOUS
 10
3.0703125
 20
1.5374074795479364
 40
1.25
 50
180.00000000004871
 51
238.75155873780608
  0
ARC
  8
0
 62
50
  6
CONTINUOUS
 10
-3.0703125
 20
1.5374074795479364
 40
1.25
 50
301.24844126219392
 51
359.99999999995129
  0
LINE
  8
0
 62
5
  6
DASHDOT
 10
1.7053473546234509e-089
 20
-2.65625
 11
1.7053473546234509e-089
 21
2.1875
  0
LINE
  8
0
 62
5
  6
CONTINUOUS
 10
-1.5859374999999998
 20
1.5374074795468751
 11
1.5859374999999998
 21
1.5374074795468751
  0
ENDBLK
  0
ENDSEC
  0
SECTION
  2
ENTITIES
  0
INSERT
  8
0
 62
50
  6
CONTINUOUS
  2
TELL_1
 10
14.6875
 20
0
 41
1.0
 42
1.0
 50
0.0
  0
INSERT
  8
0
 62
50
  6
CONTINUOUS
  2
TELL_2
 10
1.7195170996249999e-089
 20
-10.3125
 41
1.0
 42
1.0
 50
0.0
  0
INSERT
  8
0
 62
50
  6
CONTINUOUS
  2
3_12__G_1_2___2_45_-
 10
0
 20
0
 41
1.0
 42
1.0
 50
0.0
  0
ENDSEC
  0
EOF
