  0
SECTION
  2
HEADER
  9
$ACADVER
  1
AC1009
  9
$EXTMIN
 10
-3.4853320665625032
 20
-4.5309316865312539
  9
$EXTMAX
 10
17.591396731271129
 20
20.469068313468746
  9
$TEXTSTYLE
  7
STANDARD
  9
$DIMLFAC
 40
1
  9
$REGENMODE
 70
1
  9
$DRAGMODE
 70
2
  9
$DIMASO
 70
1
  9
$LTSCALE
 40
1.0000000000
  0
ENDSEC
  0
SECTION
  2
TABLES
  0
TABLE
  2
LTYPE
 70
2
  0
LTYPE
  2
CONTINUOUS
 70
64
  3
CONTINUOUS
 72
65
 73
0
 40
0.0000000000
  0
LTYPE
  2
DASHDOT
 70
64
  3
DASHDOT
 72
65
 73
4
 40
1.0000000000
 49
0.5000000000
 49
-0.2500000000
 49
0.0000000000
 49
-0.2500000000
  0
ENDTAB
  0
TABLE
  2
LAYER
 70
1
  0
LAYER
  2
0
 70
0
 62
2
  6
CONTINUOUS
  0
ENDTAB
  0
TABLE
  2
STYLE
 70
0
  0
STYLE
  2
Standard
 70
0
 40
0
 41
1
 50
0
 71
0
 42
2.5
  3
txt
  4

  0
ENDTAB
  0
ENDSEC
  0
SECTION
  2
BLOCKS
  0
BLOCK
  8
0
 62
50
  6
CONTINUOUS
  2
TELL_1
 70
0
 10
5.4166312390574248e-090
 20
16.983736246899745
  0
LINE
  8
0
 62
50
  6
CONTINUOUS
 10
-1.3582737496204385
 20
19.336335391835931
 11
1.3582737496204353
 21
19.336335391835938
  0
LINE
  8
0
 62
50
  6
CONTINUOUS
 10
1.3582737496204353
 20
19.336335391835938
 11
2.7165474992408769
 21
16.983736246906247
  0
LINE
  8
0
 62
50
  6
CONTINUOUS
 10
2.7165474992408769
 20
16.983736246906247
 11
1.3582737496204385
 21
14.631137101976556
  0
LINE
  8
0
 62
50
  6
CONTINUOUS
 10
1.3582737496204385
 20
14.631137101976556
 11
-1.358273749620436
 21
14.631137101976549
  0
LINE
  8
0
 62
50
  6
CONTINUOUS
 10
-1.358273749620436
 20
14.631137101976549
 11
-2.7165474992408813
 21
16.98373624690625
  0
LINE
  8
0
 62
50
  6
CONTINUOUS
 10
-2.7165474992408813
 20
16.98373624690625
 11
-1.3582737496204385
 21
19.336335391835931
  0
CIRCLE
  8
0
 62
50
  6
CONTINUOUS
 10
-7.4997406372078974e-089
 20
16.983736246906243
 40
2.352599144929691
  0
CIRCLE
  8
0
 62
50
  6
CONTINUOUS
 10
-6.9937139877938533e-089
 20
16.983736246906243
 40
3.4853320665625032
  0
ENDBLK
  0
BLOCK
  8
0
 62
50
  6
CONTINUOUS
  2
TELL_3
 70
0
 10
0
 20
0
  0
LINE
  8
0
 62
50
  6
CONTINUOUS
 10
-1.829799334945313
 20
-2.4920124275921918
 11
-1.829799334945313
 21
-2.0040659382734392
  0
LINE
  8
0
 62
50
  6
CONTINUOUS
 10
1.8297993349453154
 20
-2.0040659382734392
 11
1.8297993349453154
 21
-2.4920124275921891
  0
LINE
  8
0
 62
50
  6
CONTINUOUS
 10
-2.0911992399375019
 20
-4.0952651782109415
 11
2.0911992399375019
 21
-4.0952651782109415
  0
LINE
  8
0
 62
50
  6
CONTINUOUS
 10
-1.9929978774841384
 20
-2.0040659382734392
 11
1.9929978774841408
 21
-2.0040659382734392
  0
LINE
  8
0
 62
50
  6
CONTINUOUS
 10
2.3003191639312552
 20
-3.8861452542171904
 11
2.0911992399375019
 21
-4.0952651782109415
  0
LINE
  8
0
 62
50
  6
CONTINUOUS
 10
2.0911992399375019
 20
-2.4920124275921882
 11
2.3003191639312539
 21
-2.7011323515859398
  0
LINE
  8
0
 62
50
  6
CONTINUOUS
 10
-2.3003191639312499
 20
-2.7011323515859398
 11
-2.0911992399375019
 21
-2.4920124275921918
  0
LINE
  8
0
 62
50
  6
CONTINUOUS
 10
-2.0911992399375019
 20
-4.0952651782109415
 11
-2.3003191639312495
 21
-3.886145254217193
  0
LINE
  8
0
 62
50
  6
CONTINUOUS
 10
-2.3003191639312495
 20
-3.886145254217193
 11
-2.3003191639312495
 21
-2.7011323515859398
  0
LINE
  8
0
 62
50
  6
CONTINUOUS
 10
2.3003191639312539
 20
-2.7011323515859398
 11
2.3003191639312539
 21
-3.8861452542171904
  0
LINE
  8
0
 62
50
  6
CONTINUOUS
 10
-2.3003191639312495
 20
-3.8861452542171904
 11
2.3003191639312552
 21
-3.8861452542171904
  0
LINE
  8
0
 62
50
  6
CONTINUOUS
 10
2.7165474992408796
 20
-0.4356665083203129
 11
2.7165474992408796
 21
-1.6462055841592502
  0
LINE
  8
0
 62
50
  6
CONTINUOUS
 10
-2.7165474992408782
 20
-1.6462055841592527
 11
-2.7165474992408782
 21
-0.4356665083203129
  0
LINE
  8
0
 62
50
  6
CONTINUOUS
 10
-2.3003191639312499
 20
-2.7011323515859398
 11
2.3003191639312539
 21
-2.7011323515859398
  0
LINE
  8
0
 62
50
  6
CONTINUOUS
 10
2.0911992399375019
 20
-2.4920124275921918
 11
-2.0911992399375019
 21
-2.4920124275921918
  0
LINE
  8
0
 62
50
  6
CONTINUOUS
 10
-1.3582737496204398
 20
-1.6462055841592527
 11
-1.3582737496204398
 21
-0.4356665083203129
  0
LINE
  8
0
 62
50
  6
CONTINUOUS
 10
1.3582737496204398
 20
-0.4356665083203129
 11
1.3582737496204398
 21
-1.6462055841592502
  0
POLYLINE
  8
0
 62
50
  6
CONTINUOUS
 66
1
  0
VERTEX
  8
0
 62
50
  6
CONTINUOUS
 10
-1.9929978774841384
 20
-2.0040659382734392
  0
VERTEX
  8
0
 62
50
  6
CONTINUOUS
 10
-2.034280594286447
 20
-1.9944299866042605
  0
VERTEX
  8
0
 62
50
  6
CONTINUOUS
 10
-2.4453355180223975
 20
-1.8205109140231492
  0
VERTEX
  8
0
 62
50
  6
CONTINUOUS
 10
-2.7165474992408782
 20
-1.6462055841592527
  0
VERTEX
  8
0
 62
50
  6
CONTINUOUS
 10
-2.4655486553879231
 20
-1.7830753568171087
  0
VERTEX
  8
0
 62
50
  6
CONTINUOUS
 10
-2.3534499735662266
 20
-1.8205109140231492
  0
VERTEX
  8
0
 62
50
  6
CONTINUOUS
 10
-2.2448239764520448
 20
-1.8443924982131543
  0
VERTEX
  8
0
 62
50
  6
CONTINUOUS
 10
-2.0374106244306609
 20
-1.8597480647577327
  0
VERTEX
  8
0
 62
50
  6
CONTINUOUS
 10
-1.8299972724092757
 20
-1.8443924982131543
  0
VERTEX
  8
0
 62
50
  6
CONTINUOUS
 10
-1.7213712752950929
 20
-1.8205109140231492
  0
VERTEX
  8
0
 62
50
  6
CONTINUOUS
 10
-1.6092725934733971
 20
-1.7830753568171087
  0
VERTEX
  8
0
 62
50
  6
CONTINUOUS
 10
-1.3582737496204398
 20
-1.6462055841592527
  0
VERTEX
  8
0
 62
50
  6
CONTINUOUS
 10
-0.85627606191452843
 20
-1.7830753568171063
  0
VERTEX
  8
0
 62
50
  6
CONTINUOUS
 10
-0.63207869827113516
 20
-1.8205109140231481
  0
VERTEX
  8
0
 62
50
  6
CONTINUOUS
 10
-0.41482670404276867
 20
-1.844392498213153
  0
VERTEX
  8
0
 62
50
  6
CONTINUOUS
 10
-4.5309316865312542e-090
 20
-1.8597480647577302
  0
VERTEX
  8
0
 62
50
  6
CONTINUOUS
 10
0.41482670404276806
 20
-1.8443924982131519
  0
VERTEX
  8
0
 62
50
  6
CONTINUOUS
 10
0.63207869827113694
 20
-1.8205109140231468
  0
VERTEX
  8
0
 62
50
  6
CONTINUOUS
 10
0.85627606191452477
 20
-1.7830753568171076
  0
VERTEX
  8
0
 62
50
  6
CONTINUOUS
 10
1.3582737496204409
 20
-1.6462055841592502
  0
VERTEX
  8
0
 62
50
  6
CONTINUOUS
 10
1.6092725934733967
 20
-1.7830753568171063
  0
VERTEX
  8
0
 62
50
  6
CONTINUOUS
 10
1.7213712752950929
 20
-1.8205109140231468
  0
VERTEX
  8
0
 62
50
  6
CONTINUOUS
 10
1.8299972724092757
 20
-1.8443924982131519
  0
VERTEX
  8
0
 62
50
  6
CONTINUOUS
 10
2.0374106244306596
 20
-1.8597480647577278
  0
VERTEX
  8
0
 62
50
  6
CONTINUOUS
 10
2.2448239764520435
 20
-1.8443924982131519
  0
VERTEX
  8
0
 62
50
  6
CONTINUOUS
 10
2.3534499735662289
 20
-1.8205109140231457
  0
VERTEX
  8
0
 62
50
  6
CONTINUOUS
 10
2.4655486553879227
 20
-1.7830753568171063
  0
VERTEX
  8
0
 62
50
  6
CONTINUOUS
 10
2.7165474992408809
 20
-1.6462055841592502
  0
VERTEX
  8
0
 62
50
  6
CONTINUOUS
 10
2.4453355180224001
 20
-1.8205109140231457
  0
VERTEX
  8
0
 62
50
  6
CONTINUOUS
 10
2.0342805942864479
 20
-1.9944299866042579
  0
VERTEX
  8
0
 62
50
  6
CONTINUOUS
 10
1.9929978774841408
 20
-2.0040659382734392
  0
SEQEND
  8
0
  0
LINE
  8
0
 62
5
  6
CONTINUOUS
 10
-2.0911992399375019
 20
-4.0952651782109415
 11
-2.0911992399375019
 21
-2.4920124275921918
  0
LINE
  8
0
 62
5
  6
CONTINUOUS
 10
2.0911992399375019
 20
-4.0952651782109415
 11
2.0911992399375019
 21
-2.4920124275921882
  0
POLYLINE
  8
0
 62
50
  6
CONTINUOUS
 66
1
 70
1
  0
VERTEX
  8
0
 62
50
  6
CONTINUOUS
 10
-3.4853320665625032
 20
-0.4356665083203129
  0
VERTEX
  8
0
 62
50
  6
CONTINUOUS
 10
3.4853320665625032
 20
-0.4356665083203129
  0
VERTEX
  8
0
 62
50
  6
CONTINUOUS
 10
3.4853320665625032
 20
0
  0
VERTEX
  8
0
 62
50
  6
CONTINUOUS
 10
-3.4853320665625032
 20
0
  0
SEQEND
  0
ENDBLK
  0
BLOCK
  8
0
 62
50
  6
CONTINUOUS
  2
TELL_5
 70
0
 10
0
 20
7.2738274335339952
  0
LINE
  8
0
 62
50
  6
CONTINUOUS
 10
-2.6887290018525776
 20
7.2738274335339952
 11
-2.7942036437669917
 21
6.8801907110091518
  0
ARC
  8
0
 62
50
  6
CONTINUOUS
 10
-2.9625322565781276
 20
6.9252942268777451
 40
0.17426660332812516
 50
165.00000000149186
 51
344.99999999911148
  0
LINE
  8
0
 62
50
  6
CONTINUOUS
 10
-3.1308608693994193
 20
6.9703977427415627
 11
-2.6293057681203589
 21
8.8422268634871273
  0
LINE
  8
0
 62
50
  6
CONTINUOUS
 10
-2.6293057681203589
 20
8.8422268634871273
 11
2.6293057681203096
 21
8.8422268634871219
  0
LINE
  8
0
 62
50
  6
CONTINUOUS
 10
2.6293057681203096
 20
8.8422268634871219
 11
3.1308608693892634
 21
6.9703977427415627
  0
ARC
  8
0
 62
50
  6
CONTINUOUS
 10
2.9625322565781276
 20
6.9252942268777451
 40
0.17426660332812516
 50
195.00000000002439
 51
14.999999999372367
  0
LINE
  8
0
 62
50
  6
CONTINUOUS
 10
2.7942036437568385
 20
6.8801907110091518
 11
2.6887290018525256
 21
7.2738274335339952
  0
LINE
  8
0
 62
50
  6
CONTINUOUS
 10
2.6887290018525256
 20
7.2738274335339952
 11
-2.6887290018525776
 21
7.2738274335339952
  0
ENDBLK
  0
BLOCK
  8
0
 62
5
  6
DASHDOT
  2
TELL_4
 70
0
 10
0
 20
7.2738274335373392
  0
INSERT
  8
0
 62
50
  6
CONTINUOUS
  2
TELL_5
 10
0
 20
7.2738274335339952
 41
1.0
 42
1.0
 50
0.0
  0
LINE
  8
0
 62
5
  6
CONTINUOUS
 10
-0.87133301664062579
 20
2.206154608752116
 11
-0.71100774157875035
 21
2.0458293336902402
  0
LINE
  8
0
 62
5
  6
CONTINUOUS
 10
-0.71100774157875035
 20
2.0458293336902402
 11
0.71100774157875035
 21
2.0458293336902402
  0
LINE
  8
0
 62
5
  6
CONTINUOUS
 10
0.71100774157875035
 20
2.0458293336902402
 11
0.87133301664062579
 21
2.206154608752116
  0
LINE
  8
0
 62
5
  6
CONTINUOUS
 10
-0.87133301664062579
 20
2.206154608752116
 11
0.87133301664062579
 21
2.206154608752116
  0
LINE
  8
0
 62
5
  6
CONTINUOUS
 10
-0.87133301664062579
 20
2.206154608752116
 11
-0.87133301664062579
 21
7.2738274335339952
  0
LINE
  8
0
 62
5
  6
CONTINUOUS
 10
0.87133301664062579
 20
2.206154608752116
 11
0.87133301664062579
 21
7.2738274335339952
  0
LINE
  8
0
 62
5
  6
CONTINUOUS
 10
-0.71100774157875035
 20
2.0458293336902402
 11
-0.71100774157875035
 21
7.2738274335339952
  0
LINE
  8
0
 62
5
  6
CONTINUOUS
 10
0.71100774157875035
 20
2.0458293336902402
 11
0.71100774157875035
 21
7.2738274335339952
  0
ENDBLK
  0
BLOCK
  8
0
 62
5
  6
CONTINUOUS
  2
TELL_2
 70
0
 10
0
 20
0
  0
LINE
  8
0
 62
5
  6
DASHDOT
 10
0
 20
-4.5309316865312539
 11
4.5309316865312542e-090
 21
9.1907600701433765
  0
INSERT
  8
0
 62
50
  6
CONTINUOUS
  2
TELL_3
 10
0
 20
0
 41
1.0
 42
1.0
 50
0.0
  0
INSERT
  8
0
 62
5
  6
DASHDOT
  2
TELL_4
 10
0
 20
7.2738274335373392
 41
1.0
 42
1.0
 50
0.0
  0
ENDBLK
  0
BLOCK
  8
0
 62
50
  6
CONTINUOUS
  2
TELL_6
 70
0
 10
14.106064664708626
 20
0
  0
LINE
  8
0
 62
50
  6
CONTINUOUS
 10
12.276265329763312
 20
-2.4920124275921918
 11
12.276265329763312
 21
-2.0040659382734392
  0
LINE
  8
0
 62
50
  6
CONTINUOUS
 10
15.93586399965394
 20
-2.0040659382734392
 11
15.93586399965394
 21
-2.4920124275921891
  0
LINE
  8
0
 62
50
  6
CONTINUOUS
 10
12.014865424771122
 20
-4.0952651782109415
 11
16.197263904646125
 21
-4.0952651782109415
  0
LINE
  8
0
 62
50
  6
CONTINUOUS
 10
12.113066787224485
 20
-2.0040659382734392
 11
16.099062542192762
 21
-2.0040659382734392
  0
LINE
  8
0
 62
50
  6
CONTINUOUS
 10
16.406383828639878
 20
-3.8861452542171904
 11
16.197263904646125
 21
-4.0952651782109415
  0
LINE
  8
0
 62
50
  6
CONTINUOUS
 10
16.197263904646125
 20
-2.4920124275921882
 11
16.406383828639875
 21
-2.7011323515859398
  0
LINE
  8
0
 62
50
  6
CONTINUOUS
 10
11.805745500777373
 20
-2.7011323515859398
 11
12.014865424771122
 21
-2.4920124275921918
  0
LINE
  8
0
 62
50
  6
CONTINUOUS
 10
12.014865424771122
 20
-4.0952651782109415
 11
11.805745500777373
 21
-3.886145254217193
  0
LINE
  8
0
 62
50
  6
CONTINUOUS
 10
11.805745500777373
 20
-3.886145254217193
 11
11.805745500777373
 21
-2.7011323515859398
  0
LINE
  8
0
 62
50
  6
CONTINUOUS
 10
16.406383828639875
 20
-2.7011323515859398
 11
16.406383828639875
 21
-3.8861452542171904
  0
LINE
  8
0
 62
50
  6
CONTINUOUS
 10
11.805745500777373
 20
-3.8861452542171904
 11
16.406383828639878
 21
-3.8861452542171904
  0
LINE
  8
0
 62
50
  6
CONTINUOUS
 10
16.822612163949504
 20
-0.4356665083203129
 11
16.822612163949504
 21
-1.6462055841592502
  0
LINE
  8
0
 62
50
  6
CONTINUOUS
 10
11.389517165467746
 20
-1.6462055841592527
 11
11.389517165467746
 21
-0.4356665083203129
  0
LINE
  8
0
 62
50
  6
CONTINUOUS
 10
11.805745500777373
 20
-2.7011323515859398
 11
16.406383828639875
 21
-2.7011323515859398
  0
LINE
  8
0
 62
50
  6
CONTINUOUS
 10
16.197263904646125
 20
-2.4920124275921918
 11
12.014865424771122
 21
-2.4920124275921918
  0
LINE
  8
0
 62
50
  6
CONTINUOUS
 10
12.747790915088183
 20
-1.6462055841592527
 11
12.747790915088183
 21
-0.4356665083203129
  0
LINE
  8
0
 62
50
  6
CONTINUOUS
 10
15.464338414329063
 20
-0.4356665083203129
 11
15.464338414329063
 21
-1.6462055841592502
  0
POLYLINE
  8
0
 62
50
  6
CONTINUOUS
 66
1
  0
VERTEX
  8
0
 62
50
  6
CONTINUOUS
 10
12.113066787224485
 20
-2.0040659382734392
  0
VERTEX
  8
0
 62
50
  6
CONTINUOUS
 10
12.071784070422177
 20
-1.9944299866042605
  0
VERTEX
  8
0
 62
50
  6
CONTINUOUS
 10
11.660729146686228
 20
-1.8205109140231492
  0
VERTEX
  8
0
 62
50
  6
CONTINUOUS
 10
11.389517165467746
 20
-1.6462055841592527
  0
VERTEX
  8
0
 62
50
  6
CONTINUOUS
 10
11.640516009320701
 20
-1.7830753568171087
  0
VERTEX
  8
0
 62
50
  6
CONTINUOUS
 10
11.752614691142398
 20
-1.8205109140231492
  0
VERTEX
  8
0
 62
50
  6
CONTINUOUS
 10
11.861240688256579
 20
-1.8443924982131543
  0
VERTEX
  8
0
 62
50
  6
CONTINUOUS
 10
12.068654040277961
 20
-1.8597480647577327
  0
VERTEX
  8
0
 62
50
  6
CONTINUOUS
 10
12.276067392299346
 20
-1.8443924982131543
  0
VERTEX
  8
0
 62
50
  6
CONTINUOUS
 10
12.384693389413531
 20
-1.8205109140231492
  0
VERTEX
  8
0
 62
50
  6
CONTINUOUS
 10
12.496792071235227
 20
-1.7830753568171087
  0
VERTEX
  8
0
 62
50
  6
CONTINUOUS
 10
12.747790915088183
 20
-1.6462055841592527
  0
VERTEX
  8
0
 62
50
  6
CONTINUOUS
 10
13.249788602794094
 20
-1.7830753568171063
  0
VERTEX
  8
0
 62
50
  6
CONTINUOUS
 10
13.473985966437487
 20
-1.8205109140231481
  0
VERTEX
  8
0
 62
50
  6
CONTINUOUS
 10
13.691237960665855
 20
-1.844392498213153
  0
VERTEX
  8
0
 62
50
  6
CONTINUOUS
 10
14.106064664708624
 20
-1.8597480647577302
  0
VERTEX
  8
0
 62
50
  6
CONTINUOUS
 10
14.520891368751391
 20
-1.8443924982131519
  0
VERTEX
  8
0
 62
50
  6
CONTINUOUS
 10
14.738143362979759
 20
-1.8205109140231468
  0
VERTEX
  8
0
 62
50
  6
CONTINUOUS
 10
14.962340726623147
 20
-1.7830753568171076
  0
VERTEX
  8
0
 62
50
  6
CONTINUOUS
 10
15.464338414329065
 20
-1.6462055841592502
  0
VERTEX
  8
0
 62
50
  6
CONTINUOUS
 10
15.71533725818202
 20
-1.7830753568171063
  0
VERTEX
  8
0
 62
50
  6
CONTINUOUS
 10
15.827435940003717
 20
-1.8205109140231468
  0
VERTEX
  8
0
 62
50
  6
CONTINUOUS
 10
15.9360619371179
 20
-1.8443924982131519
  0
VERTEX
  8
0
 62
50
  6
CONTINUOUS
 10
16.143475289139282
 20
-1.8597480647577278
  0
VERTEX
  8
0
 62
50
  6
CONTINUOUS
 10
16.350888641160665
 20
-1.8443924982131519
  0
VERTEX
  8
0
 62
50
  6
CONTINUOUS
 10
16.459514638274854
 20
-1.8205109140231457
  0
VERTEX
  8
0
 62
50
  6
CONTINUOUS
 10
16.571613320096546
 20
-1.7830753568171063
  0
VERTEX
  8
0
 62
50
  6
CONTINUOUS
 10
16.822612163949504
 20
-1.6462055841592502
  0
VERTEX
  8
0
 62
50
  6
CONTINUOUS
 10
16.551400182731026
 20
-1.8205109140231457
  0
VERTEX
  8
0
 62
50
  6
CONTINUOUS
 10
16.140345258995069
 20
-1.9944299866042579
  0
VERTEX
  8
0
 62
50
  6
CONTINUOUS
 10
16.099062542192762
 20
-2.0040659382734392
  0
SEQEND
  8
0
  0
LINE
  8
0
 62
5
  6
CONTINUOUS
 10
12.014865424771122
 20
-4.0952651782109415
 11
12.014865424771122
 21
-2.4920124275921918
  0
LINE
  8
0
 62
5
  6
CONTINUOUS
 10
16.197263904646125
 20
-4.0952651782109415
 11
16.197263904646125
 21
-2.4920124275921882
  0
POLYLINE
  8
0
 62
50
  6
CONTINUOUS
 66
1
 70
1
  0
VERTEX
  8
0
 62
50
  6
CONTINUOUS
 10
10.620732598146123
 20
-0.4356665083203129
  0
VERTEX
  8
0
 62
50
  6
CONTINUOUS
 10
17.591396731271129
 20
-0.4356665083203129
  0
VERTEX
  8
0
 62
50
  6
CONTINUOUS
 10
17.591396731271129
 20
0
  0
VERTEX
  8
0
 62
50
  6
CONTINUOUS
 10
10.620732598146123
 20
0
  0
SEQEND
  0
ENDBLK
  0
BLOCK
  8
0
 62
50
  6
CONTINUOUS
  2
TELL_7
 70
0
 10
14.106064664708631
 20
7.2738274335373392
  0
LINE
  8
0
 62
5
  6
CONTINUOUS
 10
13.021228340265761
 20
8.8422268634871273
 11
15.190900989151492
 21
8.8422268634871273
  0
LINE
  8
0
 62
5
  6
CONTINUOUS
 10
15.321600941647588
 20
6.7510276235496249
 11
15.190900989151492
 21
8.8422268634871273
  0
LINE
  8
0
 62
5
  6
CONTINUOUS
 10
15.321600941647588
 20
6.7510276235496249
 11
12.890528387769663
 21
6.7510276235496249
  0
LINE
  8
0
 62
5
  6
CONTINUOUS
 10
12.890528387769663
 20
6.7510276235496249
 11
13.021228340265763
 21
8.8422268634871273
  0
LINE
  8
0
 62
5
  6
CONTINUOUS
 10
14.977397681349252
 20
7.2738274335339952
 11
14.977397681349252
 21
2.206154608752116
  0
LINE
  8
0
 62
5
  6
CONTINUOUS
 10
14.977397681349252
 20
2.206154608752116
 11
14.817072406287377
 21
2.0458293336902402
  0
LINE
  8
0
 62
5
  6
CONTINUOUS
 10
14.817072406287377
 20
2.0458293336902402
 11
13.395056923129875
 21
2.0458293336902402
  0
LINE
  8
0
 62
5
  6
CONTINUOUS
 10
13.395056923129875
 20
2.0458293336902402
 11
13.234731648068001
 21
2.2061546087521151
  0
LINE
  8
0
 62
5
  6
CONTINUOUS
 10
13.234731648068001
 20
2.2061546087521151
 11
13.234731648068001
 21
7.2738274335339952
  0
LINE
  8
0
 62
5
  6
CONTINUOUS
 10
13.234731648068001
 20
2.2061546087521151
 11
14.977397681349252
 21
2.2061546087521151
  0
LINE
  8
0
 62
5
  6
CONTINUOUS
 10
13.395056923129875
 20
2.0458293336902402
 11
13.395056923129875
 21
7.2738274335339952
  0
LINE
  8
0
 62
5
  6
CONTINUOUS
 10
14.817072406287377
 20
2.0458293336902402
 11
14.817072406287377
 21
7.2738274335339952
  0
LINE
  8
0
 62
5
  6
CONTINUOUS
 10
12.92320337589369
 20
7.2738274335340076
 11
15.288925953523565
 21
7.2738274335340076
  0
ENDBLK
  0
BLOCK
  8
0
 62
5
  6
CONTINUOUS
  2
3_15_CR__3_4_
 70
0
 10
14.106064664708631
 20
0
  0
LINE
  8
0
 62
5
  6
DASHDOT
 10
14.106064664708626
 20
-4.5309316865312539
 11
14.106064664708626
 21
9.1907600701433765
  0
INSERT
  8
0
 62
50
  6
CONTINUOUS
  2
TELL_6
 10
14.106064664708626
 20
0
 41
1.0
 42
1.0
 50
0.0
  0
INSERT
  8
0
 62
50
  6
CONTINUOUS
  2
TELL_7
 10
14.106064664708631
 20
7.2738274335373392
 41
1.0
 42
1.0
 50
0.0
  0
ENDBLK
  0
ENDSEC
  0
SECTION
  2
ENTITIES
  0
INSERT
  8
0
 62
50
  6
CONTINUOUS
  2
TELL_1
 10
5.4166312390574248e-090
 20
16.983736246899745
 41
1.0
 42
1.0
 50
0.0
  0
INSERT
  8
0
 62
5
  6
CONTINUOUS
  2
TELL_2
 10
0
 20
0
 41
1.0
 42
1.0
 50
0.0
  0
INSERT
  8
0
 62
5
  6
CONTINUOUS
  2
3_15_CR__3_4_
 10
14.106064664708631
 20
0
 41
1.0
 42
1.0
 50
0.0
  0
ENDSEC
  0
EOF
