  0
SECTION
  2
HEADER
  9
$ACADVER
  1
AC1009
  9
$EXTMIN
 10
-4.2181069958847726
 20
-5.3497942386831259
  9
$EXTMAX
 10
14.718882668337422
 20
19.650205761316872
  9
$TEXTSTYLE
  7
STANDARD
  9
$DIMLFAC
 40
1
  9
$REGENMODE
 70
1
  9
$DRAGMODE
 70
2
  9
$DIMASO
 70
1
  9
$LTSCALE
 40
1.0000000000
  0
ENDSEC
  0
SECTION
  2
TABLES
  0
TABLE
  2
LTYPE
 70
2
  0
LTYPE
  2
CONTINUOUS
 70
64
  3
CONTINUOUS
 72
65
 73
0
 40
0.0000000000
  0
LTYPE
  2
DASHDOT
 70
64
  3
DASHDOT
 72
65
 73
4
 40
1.0000000000
 49
0.5000000000
 49
-0.2500000000
 49
0.0000000000
 49
-0.2500000000
  0
ENDTAB
  0
TABLE
  2
LAYER
 70
1
  0
LAYER
  2
0
 70
0
 62
2
  6
CONTINUOUS
  0
ENDTAB
  0
TABLE
  2
STYLE
 70
0
  0
STYLE
  2
Standard
 70
0
 40
0
 41
1
 50
0
 71
0
 42
2.5
  3
txt
  4

  0
ENDTAB
  0
ENDSEC
  0
SECTION
  2
BLOCKS
  0
BLOCK
  8
0
 62
50
  6
CONTINUOUS
  2
TELL_2
 70
0
 10
9.4947040671578577e-089
 20
16.769547325102881
  0
LINE
  8
0
 62
50
  6
CONTINUOUS
 10
-1.6037507477489588
 20
19.547325102880656
 11
1.603750747748955
 21
19.547325102880666
  0
LINE
  8
0
 62
50
  6
CONTINUOUS
 10
1.603750747748955
 20
19.547325102880666
 11
3.2075014954979175
 21
16.769547325102884
  0
LINE
  8
0
 62
50
  6
CONTINUOUS
 10
3.2075014954979175
 20
16.769547325102884
 11
1.6037507477489588
 21
13.991769547325108
  0
LINE
  8
0
 62
50
  6
CONTINUOUS
 10
1.6037507477489588
 20
13.991769547325108
 11
-1.6037507477489557
 21
13.991769547325099
  0
LINE
  8
0
 62
50
  6
CONTINUOUS
 10
-1.6037507477489557
 20
13.991769547325099
 11
-3.2075014954979224
 21
16.769547325102888
  0
LINE
  8
0
 62
50
  6
CONTINUOUS
 10
-3.2075014954979224
 20
16.769547325102888
 11
-1.6037507477489588
 21
19.547325102880656
  0
CIRCLE
  8
0
 62
50
  6
CONTINUOUS
 10
0
 20
16.769547325102881
 40
2.7777777777777786
  0
ENDBLK
  0
BLOCK
  8
0
 62
50
  6
CONTINUOUS
  2
TELL_1
 70
0
 10
9.4947040671604919e-089
 20
16.769547325102877
  0
LINE
  8
0
 62
50
  6
CONTINUOUS
 10
-4.2181069958847726
 20
19.650205761316872
 11
4.2181069958847726
 21
19.650205761316872
  0
LINE
  8
0
 62
50
  6
CONTINUOUS
 10
-4.2181069958847726
 20
13.888888888888891
 11
4.2181069958847726
 21
13.888888888888891
  0
LINE
  8
0
 62
50
  6
CONTINUOUS
 10
-4.2181069958847726
 20
13.888888888888891
 11
-4.2181069958847726
 21
19.650205761316872
  0
LINE
  8
0
 62
50
  6
CONTINUOUS
 10
4.2181069958847726
 20
19.650205761316872
 11
4.2181069958847726
 21
13.888888888888891
  0
LINE
  8
0
 62
5
  6
CONTINUOUS
 10
-2.9835390946502049
 20
13.888888888888891
 11
-2.9835390946502049
 21
16.203438540321873
  0
LINE
  8
0
 62
5
  6
CONTINUOUS
 10
-2.9835390946502049
 20
17.335656109883899
 11
-2.9835390946502049
 21
19.650205761316872
  0
LINE
  8
0
 62
5
  6
CONTINUOUS
 10
2.9835390946502049
 20
13.888888888888891
 11
2.9835390946502049
 21
16.20343854032188
  0
LINE
  8
0
 62
5
  6
CONTINUOUS
 10
2.9835390946502049
 20
17.335656109883892
 11
2.9835390946502049
 21
19.650205761316872
  0
INSERT
  8
0
 62
50
  6
CONTINUOUS
  2
TELL_2
 10
9.4947040671578577e-089
 20
16.769547325102881
 41
1.0
 42
1.0
 50
0.0
  0
ENDBLK
  0
BLOCK
  8
0
 62
5
  6
DASHDOT
  2
TELL_4
 70
0
 10
5.3497942386831261e-090
 20
6.2757201646090524
  0
LINE
  8
0
 62
50
  6
CONTINUOUS
 10
-3.0864197530864161
 20
6.4814814814814845
 11
-3.0864197530864161
 21
7.7160493827160517
  0
LINE
  8
0
 62
50
  6
CONTINUOUS
 10
3.0864197530864206
 20
7.7160493827160517
 11
3.0864197530864206
 21
6.4814814814814845
  0
LINE
  8
0
 62
50
  6
CONTINUOUS
 10
2.7554773270818513
 20
6.2757201646090577
 11
1.2860082304526745
 21
6.2757201646090577
  0
LINE
  8
0
 62
50
  6
CONTINUOUS
 10
1.2860082304526745
 20
5.8641975308642023
 11
-1.2860082304526745
 21
5.8641975308642023
  0
LINE
  8
0
 62
50
  6
CONTINUOUS
 10
-2.7554773270818558
 20
6.2757201646090577
 11
-1.2860082304526745
 21
6.2757201646090577
  0
LINE
  8
0
 62
5
  6
CONTINUOUS
 10
-2.0576131687178099
 20
6.2757201646153034
 11
-2.0576131687178099
 21
7.7160493827222973
  0
LINE
  8
0
 62
50
  6
CONTINUOUS
 10
-3.0864197530864161
 20
7.7160493827160517
 11
3.0864197530864206
 21
7.7160493827160517
  0
LINE
  8
0
 62
5
  6
CONTINUOUS
 10
-1.0288065843621397
 20
5.8641975308642023
 11
-1.0288065843621397
 21
2.3497942386831316
  0
LINE
  8
0
 62
5
  6
CONTINUOUS
 10
-1.0288065843621397
 20
2.3497942386831316
 11
-0.83950617283950557
 21
2.160493827160499
  0
LINE
  8
0
 62
5
  6
CONTINUOUS
 10
-0.83950617283950557
 20
2.160493827160499
 11
0.83950617283950557
 21
2.160493827160499
  0
LINE
  8
0
 62
5
  6
CONTINUOUS
 10
0.83950617283950557
 20
2.160493827160499
 11
1.0288065843621397
 21
2.3497942386831334
  0
LINE
  8
0
 62
5
  6
CONTINUOUS
 10
1.0288065843621397
 20
2.3497942386831334
 11
1.0288065843621397
 21
5.8641975308642023
  0
LINE
  8
0
 62
5
  6
CONTINUOUS
 10
-1.0288065843621397
 20
2.3497942386831316
 11
1.0288065843621397
 21
2.3497942386831316
  0
LINE
  8
0
 62
5
  6
CONTINUOUS
 10
-0.83950617283950557
 20
5.8641975308642023
 11
-0.83950617283950557
 21
2.160493827160499
  0
LINE
  8
0
 62
5
  6
CONTINUOUS
 10
0.83950617283950557
 20
2.160493827160499
 11
0.83950617283950557
 21
5.8641975308642023
  0
LINE
  8
0
 62
50
  6
CONTINUOUS
 10
-3.0864197530864161
 20
6.4814814814814845
 11
-2.7554773270818558
 21
6.2757201646090577
  0
LINE
  8
0
 62
50
  6
CONTINUOUS
 10
3.0864197530864206
 20
6.4814814814814845
 11
2.7554773270818527
 21
6.2757201646090577
  0
LINE
  8
0
 62
50
  6
CONTINUOUS
 10
-1.2860082304526745
 20
6.2757201646090577
 11
-1.2860082304526745
 21
5.8641975308642023
  0
LINE
  8
0
 62
50
  6
CONTINUOUS
 10
1.2860082304526745
 20
6.2757201646090577
 11
1.2860082304526745
 21
5.8641975308642023
  0
ENDBLK
  0
BLOCK
  8
0
 62
50
  6
CONTINUOUS
  2
TELL_5
 70
0
 10
0
 20
0
  0
LINE
  8
0
 62
50
  6
CONTINUOUS
 10
-2.1604938271604919
 20
-3.0452674897119358
 11
-2.1604938271604919
 21
-2.4691358024691352
  0
LINE
  8
0
 62
50
  6
CONTINUOUS
 10
2.160493827160495
 20
-2.4691358024691352
 11
2.160493827160495
 21
-3.0452674897119327
  0
LINE
  8
0
 62
50
  6
CONTINUOUS
 10
-2.4691358024691352
 20
-4.9382716049382704
 11
2.4691358024691352
 21
-4.9382716049382704
  0
LINE
  8
0
 62
50
  6
CONTINUOUS
 10
-2.3531867837175335
 20
-2.4691358024691352
 11
2.3531867837175366
 21
-2.4691358024691352
  0
LINE
  8
0
 62
50
  6
CONTINUOUS
 10
2.7160493827160521
 20
-4.6913580246913567
 11
2.4691358024691352
 21
-4.9382716049382704
  0
LINE
  8
0
 62
50
  6
CONTINUOUS
 10
2.4691358024691352
 20
-3.0452674897119314
 11
2.7160493827160508
 21
-3.292181069958847
  0
LINE
  8
0
 62
50
  6
CONTINUOUS
 10
-2.7160493827160463
 20
-3.292181069958847
 11
-2.4691358024691352
 21
-3.0452674897119358
  0
LINE
  8
0
 62
50
  6
CONTINUOUS
 10
-2.4691358024691352
 20
-4.9382716049382704
 11
-2.7160493827160455
 21
-4.6913580246913593
  0
LINE
  8
0
 62
50
  6
CONTINUOUS
 10
-2.7160493827160455
 20
-4.6913580246913593
 11
-2.7160493827160455
 21
-3.292181069958847
  0
LINE
  8
0
 62
50
  6
CONTINUOUS
 10
2.7160493827160508
 20
-3.292181069958847
 11
2.7160493827160508
 21
-4.6913580246913567
  0
LINE
  8
0
 62
50
  6
CONTINUOUS
 10
-2.7160493827160455
 20
-4.6913580246913567
 11
2.7160493827160521
 21
-4.6913580246913567
  0
LINE
  8
0
 62
50
  6
CONTINUOUS
 10
3.2075014954979202
 20
-0.61728395061728381
 11
3.2075014954979202
 21
-2.0466003521148042
  0
LINE
  8
0
 62
50
  6
CONTINUOUS
 10
-3.2075014954979189
 20
-2.0466003521148068
 11
-3.2075014954979189
 21
-0.61728395061728381
  0
LINE
  8
0
 62
50
  6
CONTINUOUS
 10
-2.7160493827160463
 20
-3.292181069958847
 11
2.7160493827160508
 21
-3.292181069958847
  0
LINE
  8
0
 62
50
  6
CONTINUOUS
 10
2.4691358024691352
 20
-3.0452674897119358
 11
-2.4691358024691352
 21
-3.0452674897119358
  0
LINE
  8
0
 62
50
  6
CONTINUOUS
 10
-1.6037507477489601
 20
-2.0466003521148068
 11
-1.6037507477489601
 21
-0.61728395061728381
  0
LINE
  8
0
 62
50
  6
CONTINUOUS
 10
1.6037507477489601
 20
-0.61728395061728381
 11
1.6037507477489601
 21
-2.0466003521148042
  0
LINE
  8
0
 62
50
  6
CONTINUOUS
 10
-3.600823045267489
 20
1.2345679012345676
 11
-3.600823045267489
 21
0.61728395061728381
  0
LINE
  8
0
 62
50
  6
CONTINUOUS
 10
-2.9835390946502049
 20
0
 11
2.9835390946502049
 21
0
  0
LINE
  8
0
 62
50
  6
CONTINUOUS
 10
3.600823045267489
 20
0.61728395061728381
 11
3.600823045267489
 21
1.2345679012345676
  0
LINE
  8
0
 62
50
  6
CONTINUOUS
 10
3.600823045267489
 20
1.2345679012345676
 11
4.2181069958847726
 21
1.2345679012345676
  0
LINE
  8
0
 62
50
  6
CONTINUOUS
 10
4.2181069958847726
 20
1.2345679012345676
 11
4.2181069958847726
 21
0.61728395061728381
  0
LINE
  8
0
 62
50
  6
CONTINUOUS
 10
2.9835390946502049
 20
-0.61728395061728381
 11
-2.9835390946502049
 21
-0.61728395061728381
  0
LINE
  8
0
 62
50
  6
CONTINUOUS
 10
-4.2181069958847726
 20
0.61728395061728381
 11
-4.2181069958847726
 21
1.2345679012345676
  0
LINE
  8
0
 62
50
  6
CONTINUOUS
 10
-4.2181069958847726
 20
1.2345679012345676
 11
-3.600823045267489
 21
1.2345679012345676
  0
POLYLINE
  8
0
 62
50
  6
CONTINUOUS
 66
1
  0
VERTEX
  8
0
 62
50
  6
CONTINUOUS
 10
-2.3531867837175335
 20
-2.4691358024691352
  0
VERTEX
  8
0
 62
50
  6
CONTINUOUS
 10
-2.4019304099263978
 20
-2.4577583723310377
  0
VERTEX
  8
0
 62
50
  6
CONTINUOUS
 10
-2.887274134997754
 20
-2.2524073944609979
  0
VERTEX
  8
0
 62
50
  6
CONTINUOUS
 10
-3.2075014954979189
 20
-2.0466003521148068
  0
VERTEX
  8
0
 62
50
  6
CONTINUOUS
 10
-2.9111403358820551
 20
-2.2082062141920256
  0
VERTEX
  8
0
 62
50
  6
CONTINUOUS
 10
-2.7787823742830353
 20
-2.2524073944609979
  0
VERTEX
  8
0
 62
50
  6
CONTINUOUS
 10
-2.6505247059407537
 20
-2.280605030256325
  0
VERTEX
  8
0
 62
50
  6
CONTINUOUS
 10
-2.4056261216234418
 20
-2.2987357651945937
  0
VERTEX
  8
0
 62
50
  6
CONTINUOUS
 10
-2.1607275373061281
 20
-2.280605030256325
  0
VERTEX
  8
0
 62
50
  6
CONTINUOUS
 10
-2.0324698689638456
 20
-2.2524073944609979
  0
VERTEX
  8
0
 62
50
  6
CONTINUOUS
 10
-1.9001119073648269
 20
-2.2082062141920256
  0
VERTEX
  8
0
 62
50
  6
CONTINUOUS
 10
-1.6037507477489601
 20
-2.0466003521148068
  0
VERTEX
  8
0
 62
50
  6
CONTINUOUS
 10
-1.0110284285172308
 20
-2.2082062141920225
  0
VERTEX
  8
0
 62
50
  6
CONTINUOUS
 10
-0.74631250531919124
 20
-2.2524073944609966
  0
VERTEX
  8
0
 62
50
  6
CONTINUOUS
 10
-0.48979716863462497
 20
-2.2806050302563232
  0
VERTEX
  8
0
 62
50
  6
CONTINUOUS
 10
0
 20
-2.2987357651945906
  0
VERTEX
  8
0
 62
50
  6
CONTINUOUS
 10
0.48979716863462419
 20
-2.2806050302563219
  0
VERTEX
  8
0
 62
50
  6
CONTINUOUS
 10
0.74631250531919346
 20
-2.2524073944609952
  0
VERTEX
  8
0
 62
50
  6
CONTINUOUS
 10
1.0110284285172264
 20
-2.2082062141920238
  0
VERTEX
  8
0
 62
50
  6
CONTINUOUS
 10
1.6037507477489616
 20
-2.0466003521148042
  0
VERTEX
  8
0
 62
50
  6
CONTINUOUS
 10
1.9001119073648263
 20
-2.2082062141920225
  0
VERTEX
  8
0
 62
50
  6
CONTINUOUS
 10
2.0324698689638456
 20
-2.2524073944609952
  0
VERTEX
  8
0
 62
50
  6
CONTINUOUS
 10
2.1607275373061281
 20
-2.2806050302563219
  0
VERTEX
  8
0
 62
50
  6
CONTINUOUS
 10
2.40562612162344
 20
-2.2987357651945879
  0
VERTEX
  8
0
 62
50
  6
CONTINUOUS
 10
2.6505247059407524
 20
-2.2806050302563219
  0
VERTEX
  8
0
 62
50
  6
CONTINUOUS
 10
2.7787823742830375
 20
-2.2524073944609935
  0
VERTEX
  8
0
 62
50
  6
CONTINUOUS
 10
2.9111403358820542
 20
-2.2082062141920225
  0
VERTEX
  8
0
 62
50
  6
CONTINUOUS
 10
3.2075014954979215
 20
-2.0466003521148042
  0
VERTEX
  8
0
 62
50
  6
CONTINUOUS
 10
2.8872741349977566
 20
-2.2524073944609935
  0
VERTEX
  8
0
 62
50
  6
CONTINUOUS
 10
2.4019304099263992
 20
-2.4577583723310346
  0
VERTEX
  8
0
 62
50
  6
CONTINUOUS
 10
2.3531867837175366
 20
-2.4691358024691352
  0
SEQEND
  8
0
  0
LINE
  8
0
 62
5
  6
CONTINUOUS
 10
-2.4691358024691352
 20
-4.9382716049382704
 11
-2.4691358024691352
 21
-3.0452674897119358
  0
LINE
  8
0
 62
5
  6
CONTINUOUS
 10
2.4691358024691352
 20
-4.9382716049382704
 11
2.4691358024691352
 21
-3.0452674897119314
  0
ARC
  8
0
 62
50
  6
CONTINUOUS
 10
-2.9835390946502054
 20
0.61728395061728381
 40
0.61728395061728381
 50
180
 51
270
  0
ARC
  8
0
 62
50
  6
CONTINUOUS
 10
2.9835390946502054
 20
0.61728395061728381
 40
0.61728395061728381
 50
270
 51
0
  0
ARC
  8
0
 62
50
  6
CONTINUOUS
 10
-2.9835390946502049
 20
0.61728395061728381
 40
1.2345679012345676
 50
180
 51
270
  0
ARC
  8
0
 62
50
  6
CONTINUOUS
 10
2.9835390946502049
 20
0.61728395061728381
 40
1.2345679012345676
 50
270
 51
0
  0
ENDBLK
  0
BLOCK
  8
0
 62
5
  6
CONTINUOUS
  2
TELL_3
 70
0
 10
0
 20
0
  0
LINE
  8
0
 62
5
  6
DASHDOT
 10
0
 20
-5.3497942386831259
 11
5.349794238683127e-090
 21
8.1275720164609115
  0
INSERT
  8
0
 62
5
  6
DASHDOT
  2
TELL_4
 10
5.3497942386831261e-090
 20
6.2757201646090524
 41
1.0
 42
1.0
 50
0.0
  0
INSERT
  8
0
 62
50
  6
CONTINUOUS
  2
TELL_5
 10
0
 20
0
 41
1.0
 42
1.0
 50
0.0
  0
ENDBLK
  0
BLOCK
  8
0
 62
5
  6
DASHDOT
  2
4_25__38_17__2_80_-
 70
0
 10
11.511381172839503
 20
6.2757201646090524
  0
LINE
  8
0
 62
5
  6
CONTINUOUS
 10
12.745949074074066
 20
5.8641975308642076
 11
10.276813271604929
 21
5.8641975308642076
  0
LINE
  8
0
 62
5
  6
CONTINUOUS
 10
10.276813271604929
 20
7.7160493827160561
 11
12.745949074074066
 21
7.7160493827160561
  0
LINE
  8
0
 62
5
  6
CONTINUOUS
 10
10.482574588477357
 20
5.8641975308642076
 11
10.482574588477357
 21
2.3497942386831361
  0
LINE
  8
0
 62
5
  6
CONTINUOUS
 10
10.482574588477357
 20
2.3497942386831361
 11
10.671874999999991
 21
2.1604938271605034
  0
LINE
  8
0
 62
5
  6
CONTINUOUS
 10
10.671874999999991
 20
2.1604938271605034
 11
12.350887345679004
 21
2.1604938271605034
  0
LINE
  8
0
 62
5
  6
CONTINUOUS
 10
12.350887345679004
 20
2.1604938271605034
 11
12.540187757201638
 21
2.3497942386831374
  0
LINE
  8
0
 62
5
  6
CONTINUOUS
 10
12.540187757201638
 20
2.3497942386831374
 11
12.540187757201638
 21
5.8641975308642076
  0
LINE
  8
0
 62
5
  6
CONTINUOUS
 10
10.482574588477357
 20
2.3497942386831361
 11
12.540187757201638
 21
2.3497942386831361
  0
LINE
  8
0
 62
5
  6
CONTINUOUS
 10
10.671874999999991
 20
5.8641975308642076
 11
10.671874999999991
 21
2.1604938271605034
  0
LINE
  8
0
 62
5
  6
CONTINUOUS
 10
12.350887345679004
 20
2.1604938271605034
 11
12.350887345679004
 21
5.8641975308642076
  0
LINE
  8
0
 62
5
  6
CONTINUOUS
 10
10.276813271604929
 20
7.7160493827160561
 11
10.276813271604929
 21
5.8641975308642076
  0
LINE
  8
0
 62
5
  6
CONTINUOUS
 10
12.745949074074066
 20
7.7160493827160561
 11
12.745949074074066
 21
5.8641975308642076
  0
LINE
  8
0
 62
5
  6
CONTINUOUS
 10
10.276813271604929
 20
6.2757201646090577
 11
12.745949074074066
 21
6.2757201646090577
  0
ENDBLK
  0
BLOCK
  8
0
 62
50
  6
CONTINUOUS
  2
TELL_6
 70
0
 10
11.511381172839501
 20
0
  0
LINE
  8
0
 62
50
  6
CONTINUOUS
 10
14.392039609053491
 20
-0.61728395061728381
 11
14.392039609053491
 21
1.2345679012345676
  0
LINE
  8
0
 62
5
  6
CONTINUOUS
 10
14.392039609053491
 20
0.61728395061728669
 11
8.6307227366255095
 21
0.61728395061728669
  0
LINE
  8
0
 62
50
  6
CONTINUOUS
 10
8.6307227366255095
 20
-0.61728395061728381
 11
8.6307227366255095
 21
1.2345679012345676
  0
LINE
  8
0
 62
50
  6
CONTINUOUS
 10
8.6307227366255095
 20
1.2345679012345676
 11
14.392039609053491
 21
1.2345679012345676
  0
LINE
  8
0
 62
50
  6
CONTINUOUS
 10
9.3508873456790074
 20
-3.0452674897119358
 11
9.3508873456790074
 21
-2.4691358024691352
  0
LINE
  8
0
 62
50
  6
CONTINUOUS
 10
13.671874999999995
 20
-2.4691358024691352
 11
13.671874999999995
 21
-3.0452674897119327
  0
LINE
  8
0
 62
50
  6
CONTINUOUS
 10
9.0422453703703631
 20
-4.9382716049382704
 11
13.980516975308634
 21
-4.9382716049382704
  0
LINE
  8
0
 62
50
  6
CONTINUOUS
 10
9.158194389121963
 20
-2.4691358024691352
 11
13.864567956557034
 21
-2.4691358024691352
  0
LINE
  8
0
 62
50
  6
CONTINUOUS
 10
14.22743055555555
 20
-4.6913580246913567
 11
13.980516975308634
 21
-4.9382716049382704
  0
LINE
  8
0
 62
50
  6
CONTINUOUS
 10
13.980516975308634
 20
-3.0452674897119314
 11
14.227430555555546
 21
-3.292181069958847
  0
LINE
  8
0
 62
50
  6
CONTINUOUS
 10
8.795331790123452
 20
-3.292181069958847
 11
9.0422453703703631
 21
-3.0452674897119358
  0
LINE
  8
0
 62
50
  6
CONTINUOUS
 10
9.0422453703703631
 20
-4.9382716049382704
 11
8.795331790123452
 21
-4.6913580246913593
  0
LINE
  8
0
 62
50
  6
CONTINUOUS
 10
8.795331790123452
 20
-4.6913580246913593
 11
8.795331790123452
 21
-3.292181069958847
  0
LINE
  8
0
 62
50
  6
CONTINUOUS
 10
14.227430555555546
 20
-3.292181069958847
 11
14.227430555555546
 21
-4.6913580246913567
  0
LINE
  8
0
 62
50
  6
CONTINUOUS
 10
8.795331790123452
 20
-4.6913580246913567
 11
14.22743055555555
 21
-4.6913580246913567
  0
LINE
  8
0
 62
50
  6
CONTINUOUS
 10
14.718882668337418
 20
-0.61728395061728381
 11
14.718882668337418
 21
-2.0466003521148042
  0
LINE
  8
0
 62
50
  6
CONTINUOUS
 10
8.3038796773415804
 20
-2.0466003521148068
 11
8.3038796773415804
 21
-0.61728395061728381
  0
LINE
  8
0
 62
50
  6
CONTINUOUS
 10
8.795331790123452
 20
-3.292181069958847
 11
14.227430555555546
 21
-3.292181069958847
  0
LINE
  8
0
 62
50
  6
CONTINUOUS
 10
13.980516975308634
 20
-3.0452674897119358
 11
9.0422453703703631
 21
-3.0452674897119358
  0
LINE
  8
0
 62
50
  6
CONTINUOUS
 10
9.907630425090538
 20
-2.0466003521148068
 11
9.907630425090538
 21
-0.61728395061728381
  0
LINE
  8
0
 62
50
  6
CONTINUOUS
 10
8.3038796773415768
 20
-0.61728395061728381
 11
14.718882668337418
 21
-0.61728395061728381
  0
LINE
  8
0
 62
50
  6
CONTINUOUS
 10
13.115131920588457
 20
-0.61728395061728381
 11
13.115131920588457
 21
-2.0466003521148042
  0
POLYLINE
  8
0
 62
50
  6
CONTINUOUS
 66
1
  0
VERTEX
  8
0
 62
50
  6
CONTINUOUS
 10
9.158194389121963
 20
-2.4691358024691352
  0
VERTEX
  8
0
 62
50
  6
CONTINUOUS
 10
9.1094507629131005
 20
-2.4577583723310377
  0
VERTEX
  8
0
 62
50
  6
CONTINUOUS
 10
8.6241070378417444
 20
-2.2524073944609979
  0
VERTEX
  8
0
 62
50
  6
CONTINUOUS
 10
8.3038796773415804
 20
-2.0466003521148068
  0
VERTEX
  8
0
 62
50
  6
CONTINUOUS
 10
8.6002408369574432
 20
-2.2082062141920256
  0
VERTEX
  8
0
 62
50
  6
CONTINUOUS
 10
8.732598798556463
 20
-2.2524073944609979
  0
VERTEX
  8
0
 62
50
  6
CONTINUOUS
 10
8.8608564668987437
 20
-2.280605030256325
  0
VERTEX
  8
0
 62
50
  6
CONTINUOUS
 10
9.1057550512160539
 20
-2.2987357651945937
  0
VERTEX
  8
0
 62
50
  6
CONTINUOUS
 10
9.3506536355333676
 20
-2.280605030256325
  0
VERTEX
  8
0
 62
50
  6
CONTINUOUS
 10
9.4789113038756518
 20
-2.2524073944609979
  0
VERTEX
  8
0
 62
50
  6
CONTINUOUS
 10
9.6112692654746716
 20
-2.2082062141920256
  0
VERTEX
  8
0
 62
50
  6
CONTINUOUS
 10
9.907630425090538
 20
-2.0466003521148068
  0
VERTEX
  8
0
 62
50
  6
CONTINUOUS
 10
10.500352744322267
 20
-2.2082062141920225
  0
VERTEX
  8
0
 62
50
  6
CONTINUOUS
 10
10.765068667520305
 20
-2.2524073944609966
  0
VERTEX
  8
0
 62
50
  6
CONTINUOUS
 10
11.021584004204874
 20
-2.2806050302563232
  0
VERTEX
  8
0
 62
50
  6
CONTINUOUS
 10
11.511381172839497
 20
-2.2987357651945906
  0
VERTEX
  8
0
 62
50
  6
CONTINUOUS
 10
12.001178341474121
 20
-2.2806050302563219
  0
VERTEX
  8
0
 62
50
  6
CONTINUOUS
 10
12.25769367815869
 20
-2.2524073944609952
  0
VERTEX
  8
0
 62
50
  6
CONTINUOUS
 10
12.522409601356722
 20
-2.2082062141920238
  0
VERTEX
  8
0
 62
50
  6
CONTINUOUS
 10
13.11513192058846
 20
-2.0466003521148042
  0
VERTEX
  8
0
 62
50
  6
CONTINUOUS
 10
13.411493080204323
 20
-2.2082062141920225
  0
VERTEX
  8
0
 62
50
  6
CONTINUOUS
 10
13.543851041803343
 20
-2.2524073944609952
  0
VERTEX
  8
0
 62
50
  6
CONTINUOUS
 10
13.672108710145627
 20
-2.2806050302563219
  0
VERTEX
  8
0
 62
50
  6
CONTINUOUS
 10
13.917007294462937
 20
-2.2987357651945879
  0
VERTEX
  8
0
 62
50
  6
CONTINUOUS
 10
14.161905878780248
 20
-2.2806050302563219
  0
VERTEX
  8
0
 62
50
  6
CONTINUOUS
 10
14.290163547122535
 20
-2.2524073944609935
  0
VERTEX
  8
0
 62
50
  6
CONTINUOUS
 10
14.422521508721552
 20
-2.2082062141920225
  0
VERTEX
  8
0
 62
50
  6
CONTINUOUS
 10
14.718882668337422
 20
-2.0466003521148042
  0
VERTEX
  8
0
 62
50
  6
CONTINUOUS
 10
14.398655307837256
 20
-2.2524073944609935
  0
VERTEX
  8
0
 62
50
  6
CONTINUOUS
 10
13.913311582765896
 20
-2.4577583723310346
  0
VERTEX
  8
0
 62
50
  6
CONTINUOUS
 10
13.864567956557034
 20
-2.4691358024691352
  0
SEQEND
  8
0
  0
LINE
  8
0
 62
5
  6
CONTINUOUS
 10
9.0422453703703631
 20
-4.9382716049382704
 11
9.0422453703703631
 21
-3.0452674897119358
  0
LINE
  8
0
 62
5
  6
CONTINUOUS
 10
13.980516975308634
 20
-4.9382716049382704
 11
13.980516975308634
 21
-3.0452674897119314
  0
ENDBLK
  0
BLOCK
  8
0
 62
5
  6
CONTINUOUS
  2
3_14__3_4_
 70
0
 10
11.511381172839503
 20
0
  0
LINE
  8
0
 62
5
  6
DASHDOT
 10
11.511381172839501
 20
-5.3497942386831259
 11
11.511381172839501
 21
8.1275720164609115
  0
INSERT
  8
0
 62
5
  6
DASHDOT
  2
4_25__38_17__2_80_-
 10
11.511381172839503
 20
6.2757201646090524
 41
1.0
 42
1.0
 50
0.0
  0
INSERT
  8
0
 62
50
  6
CONTINUOUS
  2
TELL_6
 10
11.511381172839501
 20
0
 41
1.0
 42
1.0
 50
0.0
  0
ENDBLK
  0
ENDSEC
  0
SECTION
  2
ENTITIES
  0
INSERT
  8
0
 62
50
  6
CONTINUOUS
  2
TELL_1
 10
9.4947040671604919e-089
 20
16.769547325102877
 41
1.0
 42
1.0
 50
0.0
  0
INSERT
  8
0
 62
5
  6
CONTINUOUS
  2
TELL_3
 10
0
 20
0
 41
1.0
 42
1.0
 50
0.0
  0
INSERT
  8
0
 62
5
  6
CONTINUOUS
  2
3_14__3_4_
 10
11.511381172839503
 20
0
 41
1.0
 42
1.0
 50
0.0
  0
ENDSEC
  0
EOF
