  0
SECTION
  2
HEADER
  9
$ACADVER
  1
AC1009
  9
$EXTMIN
 10
-10.920314786953005
 20
-12.5
  9
$EXTMAX
 10
12.560975609756094
 20
12.499999999999996
  9
$TEXTSTYLE
  7
STANDARD
  9
$DIMLFAC
 40
1
  9
$REGENMODE
 70
1
  9
$DRAGMODE
 70
2
  9
$DIMASO
 70
1
  9
$LTSCALE
 40
1.0000000000
  0
ENDSEC
  0
SECTION
  2
TABLES
  0
TABLE
  2
LTYPE
 70
5
  0
LTYPE
  2
CONTINUOUS
 70
64
  3
CONTINUOUS
 72
65
 73
0
 40
0.0000000000
  0
LTYPE
  2
HIDDEN
 70
64
  3
HIDDEN
 72
65
 73
2
 40
0.5000000000
 49
0.2500000000
 49
-0.2500000000
  0
LTYPE
  2
DASHDOT
 70
64
  3
DASHDOT
 72
65
 73
4
 40
1.0000000000
 49
0.5000000000
 49
-0.2500000000
 49
0.0000000000
 49
-0.2500000000
  0
LTYPE
  2
DASHED
 70
64
  3
DASHED
 72
65
 73
2
 40
0.7500000000
 49
0.5000000000
 49
-0.2500000000
  0
LTYPE
  2
CENTRE
 70
64
  3
CENTRE
 72
65
 73
4
 40
2.0000000000
 49
1.2500000000
 49
-0.2500000000
 49
0.2500000000
 49
-0.2500000000
  0
ENDTAB
  0
TABLE
  2
LAYER
 70
3
  0
LAYER
  2
0
 70
0
 62
2
  6
CONTINUOUS
  0
LAYER
  2
1
 70
0
 62
2
  6
CONTINUOUS
  0
LAYER
  2
249
 70
0
 62
2
  6
CONTINUOUS
  0
ENDTAB
  0
TABLE
  2
STYLE
 70
0
  0
STYLE
  2
Standard
 70
0
 40
0
 41
1
 50
0
 71
0
 42
2.5
  3
txt
  4

  0
ENDTAB
  0
ENDSEC
  0
SECTION
  2
BLOCKS
  0
BLOCK
  8
1
 62
5
  6
CONTINUOUS
  2
TELL_1
 70
0
 10
0.36585365853658525
 20
3.7804878048780477
  0
POLYLINE
  8
0
 62
50
  6
CONTINUOUS
 66
1
 70
1
  0
VERTEX
  8
0
 62
50
  6
CONTINUOUS
 10
0.36585365853658525
 20
0.73170731707317049
  0
VERTEX
  8
0
 62
50
  6
CONTINUOUS
 10
12.560975609756094
 20
0.73170731707317049
  0
VERTEX
  8
0
 62
50
  6
CONTINUOUS
 10
12.560975609756094
 20
6.8292682926829249
  0
VERTEX
  8
0
 62
50
  6
CONTINUOUS
 10
0.36585365853658525
 20
6.8292682926829249
  0
SEQEND
  0
LINE
  8
0
 62
5
  6
HIDDEN
 10
0.36585365853658525
 20
6.4634146341463401
 11
12.560975609756094
 21
6.4634146341463401
  0
LINE
  8
0
 62
5
  6
HIDDEN
 10
12.560975609756094
 20
1.0975609756097557
 11
0.36585365853658525
 21
1.0975609756097557
  0
LINE
  8
249
 62
5
  6
CONTINUOUS
 10
3.5268292682926807
 20
6.8292682926829249
 11
3.5268292682926807
 21
6.4634146341463401
  0
LINE
  8
249
 62
5
  6
CONTINUOUS
 10
4.521951219512192
 20
6.8292682926829249
 11
4.521951219512192
 21
6.4634146341463401
  0
LINE
  8
249
 62
5
  6
CONTINUOUS
 10
3.4146341463414607
 20
6.8292682926829249
 11
3.4146341463414607
 21
6.4634146341463401
  0
LINE
  8
249
 62
5
  6
CONTINUOUS
 10
4.6341463414634116
 20
6.8292682926829249
 11
4.6341463414634116
 21
6.4634146341463401
  0
LINE
  8
249
 62
5
  6
DASHDOT
 10
4.0243902439024364
 20
5.6641531322505791
 11
4.0243902439024364
 21
7.4912993039443148
  0
LINE
  8
249
 62
5
  6
CONTINUOUS
 10
10.234146341467962
 20
6.8292682926829249
 11
10.234146341467962
 21
6.4634146341463401
  0
LINE
  8
249
 62
5
  6
CONTINUOUS
 10
11.22926829268747
 20
6.8292682926829249
 11
11.22926829268747
 21
6.4634146341463401
  0
LINE
  8
249
 62
5
  6
CONTINUOUS
 10
10.12195121951674
 20
6.8292682926829249
 11
10.12195121951674
 21
6.4634146341463401
  0
LINE
  8
249
 62
5
  6
CONTINUOUS
 10
11.341463414638691
 20
6.8292682926829249
 11
11.341463414638691
 21
6.4634146341463401
  0
LINE
  8
249
 62
5
  6
DASHDOT
 10
10.731707317077715
 20
5.6641531322505791
 11
10.731707317077715
 21
7.4912993039443148
  0
ENDBLK
  0
BLOCK
  8
0
 62
5
  6
CONTINUOUS
  2
TELL_2
 70
0
 10
0.36585365853658525
 20
-3.7804878048780477
  0
POLYLINE
  8
0
 62
50
  6
CONTINUOUS
 66
1
 70
1
  0
VERTEX
  8
0
 62
50
  6
CONTINUOUS
 10
0.36585365853658525
 20
-0.73170731707317049
  0
VERTEX
  8
0
 62
50
  6
CONTINUOUS
 10
12.560975609756094
 20
-0.73170731707317049
  0
VERTEX
  8
0
 62
50
  6
CONTINUOUS
 10
12.560975609756094
 20
-6.8292682926829249
  0
VERTEX
  8
0
 62
50
  6
CONTINUOUS
 10
0.36585365853658525
 20
-6.8292682926829249
  0
SEQEND
  0
LINE
  8
0
 62
5
  6
HIDDEN
 10
0.36585365853658525
 20
-6.4634146341463401
 11
12.560975609756094
 21
-6.4634146341463401
  0
LINE
  8
0
 62
5
  6
HIDDEN
 10
12.560975609756094
 20
-1.0975609756097557
 11
0.36585365853658525
 21
-1.0975609756097557
  0
LINE
  8
0
 62
5
  6
CONTINUOUS
 10
3.5268292682926807
 20
-6.8292682926829249
 11
3.5268292682926807
 21
-6.4634146341463401
  0
LINE
  8
0
 62
5
  6
CONTINUOUS
 10
4.521951219512192
 20
-6.8292682926829249
 11
4.521951219512192
 21
-6.4634146341463401
  0
LINE
  8
0
 62
5
  6
CONTINUOUS
 10
3.4146341463414607
 20
-6.8292682926829249
 11
3.4146341463414607
 21
-6.4634146341463401
  0
LINE
  8
0
 62
5
  6
CONTINUOUS
 10
4.6341463414634116
 20
-6.8292682926829249
 11
4.6341463414634116
 21
-6.4634146341463401
  0
LINE
  8
0
 62
5
  6
DASHDOT
 10
4.0243902439024364
 20
-5.6641531322505791
 11
4.0243902439024364
 21
-7.4912993039443148
  0
LINE
  8
0
 62
5
  6
CONTINUOUS
 10
10.234146341467962
 20
-6.8292682926829249
 11
10.234146341467962
 21
-6.4634146341463401
  0
LINE
  8
0
 62
5
  6
CONTINUOUS
 10
11.22926829268747
 20
-6.8292682926829249
 11
11.22926829268747
 21
-6.4634146341463401
  0
LINE
  8
0
 62
5
  6
CONTINUOUS
 10
10.12195121951674
 20
-6.8292682926829249
 11
10.12195121951674
 21
-6.4634146341463401
  0
LINE
  8
0
 62
5
  6
CONTINUOUS
 10
11.341463414638691
 20
-6.8292682926829249
 11
11.341463414638691
 21
-6.4634146341463401
  0
LINE
  8
0
 62
5
  6
DASHDOT
 10
10.731707317077715
 20
-5.6641531322505791
 11
10.731707317077715
 21
-7.4912993039443148
  0
ENDBLK
  0
BLOCK
  8
0
 62
5
  6
DASHDOT
  2
APPLIQUE_CPE_D_DROITE
 70
0
 10
0
 20
0
  0
INSERT
  8
1
 62
5
  6
CONTINUOUS
  2
TELL_1
 10
0.36585365853658525
 20
3.7804878048780477
 41
1.0
 42
1.0
 50
0.0
  0
LINE
  8
1
 62
5
  6
DASHDOT
 10
-0.7784224888304746
 20
-10.975609756097562
 11
0.99229946246146561
 21
-10.975609756097562
  0
LINE
  8
0
 62
5
  6
HIDDEN
 10
0
 20
-12.5
 11
0
 21
12.499999999999993
  0
LINE
  8
0
 62
5
  6
DASHDOT
 10
-0.68706518024578611
 20
10.975609756097555
 11
0.92691393808367828
 21
10.975609756097555
  0
LINE
  8
0
 62
50
  6
CONTINUOUS
 10
-0.87445921464913334
 20
-12.5
 11
0.36585365853658525
 21
-12.5
  0
LINE
  8
0
 62
50
  6
CONTINUOUS
 10
0.36585365853658525
 20
-12.5
 11
0.36585365853658525
 21
12.499999999999993
  0
LINE
  8
0
 62
50
  6
CONTINUOUS
 10
0.36585365853658525
 20
12.499999999999993
 11
-0.87445921464913334
 21
12.499999999999993
  0
LINE
  8
0
 62
50
  6
CONTINUOUS
 10
-1.7073170731707175
 20
11.66714214147841
 11
-1.7073170731707175
 21
-11.667142141478417
  0
LINE
  8
0
 62
50
  6
CONTINUOUS
 10
-0.87445921464913334
 20
12.499999999999993
 11
-1.7073170731707175
 21
11.66714214147841
  0
LINE
  8
0
 62
50
  6
CONTINUOUS
 10
-0.87445921464913334
 20
-12.5
 11
-1.7073170731707175
 21
-11.667142141478417
  0
INSERT
  8
0
 62
5
  6
CONTINUOUS
  2
TELL_2
 10
0.36585365853658525
 20
-3.7804878048780477
 41
1.0
 42
1.0
 50
0.0
  0
LINE
  8
0
 62
5
  6
HIDDEN
 10
0.36585365853658525
 20
10.213414634146339
 11
1.2500000000000001e-089
 21
10.213414634146339
  0
LINE
  8
0
 62
5
  6
HIDDEN
 10
0.36585365853658525
 20
11.737804878048777
 11
1.2500000000000001e-089
 21
11.737804878048777
  0
LINE
  8
0
 62
5
  6
HIDDEN
 10
0.36585365853658525
 20
-11.737804878048777
 11
1.2500000000000001e-089
 21
-11.737804878048777
  0
LINE
  8
0
 62
5
  6
HIDDEN
 10
0.36585365853658525
 20
-10.213414634146339
 11
1.2500000000000001e-089
 21
-10.213414634146339
  0
ENDBLK
  0
BLOCK
  8
249
 62
50
  6
CONTINUOUS
  2
RHS_50_25_3
 70
0
 10
-8.4203147869512165
 20
3.7804878048780477
  0
ARC
  8
249
 62
50
  6
CONTINUOUS
 10
-7.4447050308554541
 20
6.2804878048780468
 40
0.54878048780487787
 50
0
 51
90
  0
LINE
  8
249
 62
50
  6
CONTINUOUS
 10
-6.895924543050576
 20
6.2804878048780468
 11
-6.895924543050576
 21
1.2804878048780484
  0
ARC
  8
249
 62
50
  6
CONTINUOUS
 10
-7.4447050308554541
 20
1.2804878048780484
 40
0.54878048780487787
 50
270
 51
0
  0
LINE
  8
249
 62
50
  6
CONTINUOUS
 10
-7.4447050308554541
 20
0.73170731707317049
 11
-9.395924543050576
 21
0.73170731707317049
  0
ARC
  8
249
 62
50
  6
CONTINUOUS
 10
-9.395924543050576
 20
1.2804878048780484
 40
0.54878048780487787
 50
180
 51
270
  0
LINE
  8
249
 62
50
  6
CONTINUOUS
 10
-9.9447050308554523
 20
1.2804878048780484
 11
-9.9447050308554523
 21
6.2804878048780468
  0
ARC
  8
249
 62
50
  6
CONTINUOUS
 10
-9.395924543050576
 20
6.2804878048780468
 40
0.54878048780487787
 50
90
 51
180
  0
LINE
  8
249
 62
50
  6
CONTINUOUS
 10
-9.395924543050576
 20
6.8292682926829249
 11
-7.4447050308554541
 21
6.8292682926829249
  0
ARC
  8
249
 62
50
  6
CONTINUOUS
 10
-7.4447050308554541
 20
6.2804878048780468
 40
0.18292682926829262
 50
0
 51
90
  0
LINE
  8
249
 62
50
  6
CONTINUOUS
 10
-7.2617782015871608
 20
6.2804878048780468
 11
-7.2617782015871608
 21
1.2804878048780484
  0
ARC
  8
249
 62
50
  6
CONTINUOUS
 10
-7.4447050308554541
 20
1.2804878048780484
 40
0.18292682926829262
 50
270
 51
0
  0
LINE
  8
249
 62
50
  6
CONTINUOUS
 10
-7.4447050308554541
 20
1.0975609756097557
 11
-9.395924543050576
 21
1.0975609756097557
  0
ARC
  8
249
 62
50
  6
CONTINUOUS
 10
-9.395924543050576
 20
1.2804878048780484
 40
0.18292682926829262
 50
180
 51
270
  0
LINE
  8
249
 62
50
  6
CONTINUOUS
 10
-9.5788513723188675
 20
1.2804878048780484
 11
-9.5788513723188675
 21
6.2804878048780468
  0
ARC
  8
249
 62
50
  6
CONTINUOUS
 10
-9.395924543050576
 20
6.2804878048780468
 40
0.18292682926829262
 50
90
 51
180
  0
LINE
  8
249
 62
50
  6
CONTINUOUS
 10
-9.395924543050576
 20
6.4634146341463401
 11
-7.4447050308554541
 21
6.4634146341463401
  0
ENDBLK
  0
BLOCK
  8
249
 62
5
  6
DASHDOT
  2
TELL_3
 70
0
 10
-8.4203147869512165
 20
6.8292682926829249
  0
LINE
  8
249
 62
5
  6
DASHED
 10
-8.9178757625627689
 20
6.8292682926829249
 11
-8.9178757625627689
 21
6.4634146341463401
  0
LINE
  8
249
 62
5
  6
DASHED
 10
-7.9227538113432567
 20
6.8292682926829249
 11
-7.9227538113432567
 21
6.4634146341463401
  0
LINE
  8
249
 62
5
  6
DASHED
 10
-9.0300708845139877
 20
6.8292682926829249
 11
-9.0300708845139877
 21
6.4634146341463401
  0
LINE
  8
249
 62
5
  6
DASHED
 10
-7.8105586893920371
 20
6.8292682926829249
 11
-7.8105586893920371
 21
6.4634146341463401
  0
LINE
  8
249
 62
5
  6
DASHDOT
 10
-8.4203147869530124
 20
6.2195121951219496
 11
-8.4203147869530124
 21
7.0731707317073154
  0
ENDBLK
  0
BLOCK
  8
0
 62
50
  6
CONTINUOUS
  2
RHS_50_25_3_2
 70
0
 10
-8.4203147869512165
 20
-3.7804878048780477
  0
ARC
  8
0
 62
50
  6
CONTINUOUS
 10
-7.4447050308554541
 20
-6.2804878048780468
 40
0.54878048780487787
 50
270
 51
0
  0
LINE
  8
0
 62
50
  6
CONTINUOUS
 10
-6.895924543050576
 20
-6.2804878048780468
 11
-6.895924543050576
 21
-1.2804878048780484
  0
ARC
  8
0
 62
50
  6
CONTINUOUS
 10
-7.4447050308554541
 20
-1.2804878048780484
 40
0.54878048780487787
 50
0
 51
90
  0
LINE
  8
0
 62
50
  6
CONTINUOUS
 10
-7.4447050308554541
 20
-0.73170731707317049
 11
-9.395924543050576
 21
-0.73170731707317049
  0
ARC
  8
0
 62
50
  6
CONTINUOUS
 10
-9.395924543050576
 20
-1.2804878048780484
 40
0.54878048780487787
 50
90
 51
180
  0
LINE
  8
0
 62
50
  6
CONTINUOUS
 10
-9.9447050308554523
 20
-1.2804878048780484
 11
-9.9447050308554523
 21
-6.2804878048780468
  0
ARC
  8
0
 62
50
  6
CONTINUOUS
 10
-9.395924543050576
 20
-6.2804878048780468
 40
0.54878048780487787
 50
180
 51
270
  0
LINE
  8
0
 62
50
  6
CONTINUOUS
 10
-9.395924543050576
 20
-6.8292682926829249
 11
-7.4447050308554541
 21
-6.8292682926829249
  0
ARC
  8
0
 62
50
  6
CONTINUOUS
 10
-7.4447050308554541
 20
-6.2804878048780468
 40
0.18292682926829262
 50
270
 51
0
  0
LINE
  8
0
 62
50
  6
CONTINUOUS
 10
-7.2617782015871608
 20
-6.2804878048780468
 11
-7.2617782015871608
 21
-1.2804878048780484
  0
ARC
  8
0
 62
50
  6
CONTINUOUS
 10
-7.4447050308554541
 20
-1.2804878048780484
 40
0.18292682926829262
 50
0
 51
90
  0
LINE
  8
0
 62
50
  6
CONTINUOUS
 10
-7.4447050308554541
 20
-1.0975609756097557
 11
-9.395924543050576
 21
-1.0975609756097557
  0
ARC
  8
0
 62
50
  6
CONTINUOUS
 10
-9.395924543050576
 20
-1.2804878048780484
 40
0.18292682926829262
 50
90
 51
180
  0
LINE
  8
0
 62
50
  6
CONTINUOUS
 10
-9.5788513723188675
 20
-1.2804878048780484
 11
-9.5788513723188675
 21
-6.2804878048780468
  0
ARC
  8
0
 62
50
  6
CONTINUOUS
 10
-9.395924543050576
 20
-6.2804878048780468
 40
0.18292682926829262
 50
180
 51
270
  0
LINE
  8
0
 62
50
  6
CONTINUOUS
 10
-9.395924543050576
 20
-6.4634146341463401
 11
-7.4447050308554541
 21
-6.4634146341463401
  0
ENDBLK
  0
BLOCK
  8
0
 62
5
  6
DASHDOT
  2
TELL_4
 70
0
 10
-8.4203147869512165
 20
-6.8292682926829249
  0
LINE
  8
0
 62
5
  6
DASHED
 10
-8.9178757625627689
 20
-6.8292682926829249
 11
-8.9178757625627689
 21
-6.4634146341463401
  0
LINE
  8
0
 62
5
  6
DASHED
 10
-7.9227538113432567
 20
-6.8292682926829249
 11
-7.9227538113432567
 21
-6.4634146341463401
  0
LINE
  8
0
 62
5
  6
DASHED
 10
-9.0300708845139877
 20
-6.8292682926829249
 11
-9.0300708845139877
 21
-6.4634146341463401
  0
LINE
  8
0
 62
5
  6
DASHED
 10
-7.8105586893920371
 20
-6.8292682926829249
 11
-7.8105586893920371
 21
-6.4634146341463401
  0
LINE
  8
0
 62
5
  6
DASHDOT
 10
-8.4203147869530124
 20
-6.2195121951219496
 11
-8.4203147869530124
 21
-7.0731707317073154
  0
ENDBLK
  0
BLOCK
  8
0
 62
5
  6
DASHDOT
  2
APPLIQUE_CPE_D_FACE
 70
0
 10
-8.4203147869512165
 20
0
  0
INSERT
  8
249
 62
50
  6
CONTINUOUS
  2
RHS_50_25_3
 10
-8.4203147869512165
 20
3.7804878048780477
 41
1.0
 42
1.0
 50
0.0
  0
INSERT
  8
249
 62
5
  6
DASHDOT
  2
TELL_3
 10
-8.4203147869512165
 20
6.8292682926829249
 41
1.0
 42
1.0
 50
0.0
  0
INSERT
  8
0
 62
50
  6
CONTINUOUS
  2
RHS_50_25_3_2
 10
-8.4203147869512165
 20
-3.7804878048780477
 41
1.0
 42
1.0
 50
0.0
  0
INSERT
  8
0
 62
5
  6
DASHDOT
  2
TELL_4
 10
-8.4203147869512165
 20
-6.8292682926829249
 41
1.0
 42
1.0
 50
0.0
  0
CIRCLE
  8
0
 62
50
  6
CONTINUOUS
 10
-8.4203147869530053
 20
10.975609756097555
 40
0.7621951219512193
  0
LINE
  8
0
 62
5
  6
CENTRE
 10
-9.4111684454895901
 20
10.975609756097555
 11
-7.4294611284164205
 21
10.975609756097555
  0
LINE
  8
0
 62
5
  6
CENTRE
 10
-8.4203147869530053
 20
11.96646341463414
 11
-8.4203147869530053
 21
9.9847560975609699
  0
POLYLINE
  8
0
 62
50
  6
CONTINUOUS
 66
1
 70
1
  0
VERTEX
  8
0
 62
50
  6
CONTINUOUS
 10
-10.920314786953005
 20
-12.5
  0
VERTEX
  8
0
 62
50
  6
CONTINUOUS
 10
-5.9203147869530124
 20
-12.5
  0
VERTEX
  8
0
 62
50
  6
CONTINUOUS
 10
-5.9203147869530124
 20
12.499999999999996
  0
VERTEX
  8
0
 62
50
  6
CONTINUOUS
 10
-10.920314786953005
 20
12.499999999999996
  0
SEQEND
  0
LINE
  8
0
 62
5
  6
HIDDEN
 10
-10.615436738172518
 20
-12.5
 11
-10.615436738172518
 21
12.499999999999993
  0
LINE
  8
0
 62
5
  6
HIDDEN
 10
-6.2251928357334938
 20
-12.5
 11
-6.2251928357334938
 21
12.499999999999993
  0
CIRCLE
  8
0
 62
50
  6
CONTINUOUS
 10
-8.4203147869530053
 20
-10.975609756097562
 40
0.7621951219512193
  0
LINE
  8
0
 62
5
  6
CENTRE
 10
-9.4111684454895901
 20
-10.975609756097562
 11
-7.4294611284164205
 21
-10.975609756097562
  0
LINE
  8
0
 62
5
  6
CENTRE
 10
-8.4203147869530053
 20
-9.984756097560977
 11
-8.4203147869530053
 21
-11.966463414634147
  0
ENDBLK
  0
ENDSEC
  0
SECTION
  2
ENTITIES
  0
INSERT
  8
0
 62
5
  6
DASHDOT
  2
APPLIQUE_CPE_D_DROITE
 10
0
 20
0
 41
1.0
 42
1.0
 50
0.0
  0
INSERT
  8
0
 62
5
  6
DASHDOT
  2
APPLIQUE_CPE_D_FACE
 10
-8.4203147869512165
 20
0
 41
1.0
 42
1.0
 50
0.0
  0
ENDSEC
  0
EOF
