  0
SECTION
  2
HEADER
  9
$ACADVER
  1
AC1009
  9
$EXTMIN
 10
-10.741810989143037
 20
-8.3057411716264937
  9
$EXTMAX
 10
14.258189010856965
 20
8.305741171351654
  9
$TEXTSTYLE
  7
STANDARD
  9
$DIMLFAC
 40
1
  9
$REGENMODE
 70
1
  9
$DRAGMODE
 70
2
  9
$DIMASO
 70
1
  9
$LTSCALE
 40
1.0000000000
  0
ENDSEC
  0
SECTION
  2
TABLES
  0
TABLE
  2
LTYPE
 70
5
  0
LTYPE
  2
CONTINUOUS
 70
64
  3
CONTINUOUS
 72
65
 73
0
 40
0.0000000000
  0
LTYPE
  2
HIDDEN
 70
64
  3
HIDDEN
 72
65
 73
2
 40
0.5000000000
 49
0.2500000000
 49
-0.2500000000
  0
LTYPE
  2
DASHDOT
 70
64
  3
DASHDOT
 72
65
 73
4
 40
1.0000000000
 49
0.5000000000
 49
-0.2500000000
 49
0.0000000000
 49
-0.2500000000
  0
LTYPE
  2
DASHED
 70
64
  3
DASHED
 72
65
 73
2
 40
0.7500000000
 49
0.5000000000
 49
-0.2500000000
  0
LTYPE
  2
CENTRE
 70
64
  3
CENTRE
 72
65
 73
4
 40
2.0000000000
 49
1.2500000000
 49
-0.2500000000
 49
0.2500000000
 49
-0.2500000000
  0
ENDTAB
  0
TABLE
  2
LAYER
 70
3
  0
LAYER
  2
0
 70
0
 62
2
  6
CONTINUOUS
  0
LAYER
  2
1
 70
0
 62
2
  6
CONTINUOUS
  0
LAYER
  2
249
 70
0
 62
2
  6
CONTINUOUS
  0
ENDTAB
  0
TABLE
  2
STYLE
 70
0
  0
STYLE
  2
Standard
 70
0
 40
0
 41
1
 50
0
 71
0
 42
2.5
  3
txt
  4

  0
ENDTAB
  0
ENDSEC
  0
SECTION
  2
BLOCKS
  0
BLOCK
  8
1
 62
5
  6
CONTINUOUS
  2
TELL_1
 70
0
 10
0.41528705856864967
 20
0
  0
POLYLINE
  8
0
 62
50
  6
CONTINUOUS
 66
1
 70
1
  0
VERTEX
  8
0
 62
50
  6
CONTINUOUS
 10
0.4152870585686339
 20
-3.4607254880720757
  0
VERTEX
  8
0
 62
50
  6
CONTINUOUS
 10
14.258189010856956
 20
-3.4607254880720757
  0
VERTEX
  8
0
 62
50
  6
CONTINUOUS
 10
14.258189010856956
 20
3.4607254880720757
  0
VERTEX
  8
0
 62
50
  6
CONTINUOUS
 10
0.4152870585686339
 20
3.4607254880720757
  0
SEQEND
  0
LINE
  8
0
 62
5
  6
HIDDEN
 10
0.41528705856864179
 20
3.045438429503426
 11
14.258189010856965
 21
3.045438429503426
  0
LINE
  8
0
 62
5
  6
HIDDEN
 10
14.258189010856965
 20
-3.045438429503426
 11
0.41528705856864179
 21
-3.045438429503426
  0
ENDBLK
  0
BLOCK
  8
0
 62
5
  6
DASHDOT
  2
APPLIQUE_CPE_A_DROITE
 70
0
 10
0
 20
0
  0
INSERT
  8
1
 62
5
  6
CONTINUOUS
  2
TELL_1
 10
0.41528705856864967
 20
0
 41
1.0
 42
1.0
 50
0.0
  0
LINE
  8
0
 62
5
  6
HIDDEN
 10
0
 20
-8.3057411713729934
 11
0
 21
8.305741171351654
  0
LINE
  8
0
 62
50
  6
CONTINUOUS
 10
-0.99261435991238212
 20
-8.3057411713729934
 11
0.41528705856864179
 21
-8.3057411713729934
  0
LINE
  8
0
 62
50
  6
CONTINUOUS
 10
0.41528705856864179
 20
-8.3057411713729934
 11
0.41528705856864179
 21
8.305741171351654
  0
LINE
  8
0
 62
50
  6
CONTINUOUS
 10
0.41528705856864179
 20
8.305741171351654
 11
-0.99261435991238212
 21
8.305741171351654
  0
LINE
  8
0
 62
50
  6
CONTINUOUS
 10
-1.9380062733203611
 20
7.3603492579436702
 11
-1.9380062733203611
 21
-7.3603492579649945
  0
LINE
  8
0
 62
50
  6
CONTINUOUS
 10
-0.99261435991238212
 20
8.305741171351654
 11
-1.9380062733203611
 21
7.3603492579436702
  0
LINE
  8
0
 62
50
  6
CONTINUOUS
 10
-0.99261435991238212
 20
-8.3057411713729934
 11
-1.9380062733203611
 21
-7.3603492579649945
  0
LINE
  8
249
 62
5
  6
DASHED
 10
4.0033672446017734
 20
3.4607254880720699
 11
4.0033672446017734
 21
3.0454384295034203
  0
LINE
  8
249
 62
5
  6
DASHED
 10
5.1329480439084998
 20
3.4607254880720699
 11
5.1329480439084998
 21
3.0454384295034203
  0
LINE
  8
249
 62
5
  6
DASHED
 10
3.8760125466407205
 20
3.4607254880720699
 11
3.8760125466407205
 21
3.0454384295034203
  0
LINE
  8
249
 62
5
  6
DASHED
 10
5.2603027418695527
 20
3.4607254880720699
 11
5.2603027418695527
 21
3.0454384295034203
  0
LINE
  8
249
 62
5
  6
DASHDOT
 10
4.5681576442551366
 20
2.7685803904576538
 11
4.5681576442551366
 21
3.7375835271178364
  0
LINE
  8
249
 62
5
  6
DASHED
 10
11.616963318365514
 20
3.4607254880720681
 11
11.616963318365514
 21
3.0454384295034185
  0
LINE
  8
249
 62
5
  6
DASHED
 10
12.746544117672242
 20
3.4607254880720681
 11
12.746544117672242
 21
3.0454384295034185
  0
LINE
  8
249
 62
5
  6
DASHED
 10
11.489608620404461
 20
3.4607254880720681
 11
11.489608620404461
 21
3.0454384295034185
  0
LINE
  8
249
 62
5
  6
DASHED
 10
12.873898815633293
 20
3.4607254880720681
 11
12.873898815633293
 21
3.0454384295034185
  0
LINE
  8
249
 62
5
  6
DASHDOT
 10
12.181753718018877
 20
2.768580390457652
 11
12.181753718018877
 21
3.7375835271178346
  0
LINE
  8
0
 62
5
  6
DASHED
 10
0.41528705856864179
 20
7.4405597991014725
 11
-7.8687787392302211e-015
 21
7.4405597991014725
  0
LINE
  8
0
 62
5
  6
DASHED
 10
0.41528705856864179
 20
5.7101970550697612
 11
-7.8687787392302211e-015
 21
5.7101970550697612
  0
LINE
  8
0
 62
5
  6
DASHDOT
 10
-0.27685803904578021
 20
6.5753784270834528
 11
0.69214509761440235
 21
6.5753784270834528
  0
LINE
  8
0
 62
5
  6
DASHED
 10
0.41528705856864179
 20
-5.7101970555724337
 11
-7.8687787392302211e-015
 21
-5.7101970555724337
  0
LINE
  8
0
 62
5
  6
DASHED
 10
0.41528705856864179
 20
-7.440559799604145
 11
-7.8687787392302211e-015
 21
-7.440559799604145
  0
LINE
  8
0
 62
5
  6
DASHDOT
 10
-0.27685803904578021
 20
-6.5753784275904534
 11
0.69214509761440235
 21
-6.5753784275904534
  0
ENDBLK
  0
BLOCK
  8
249
 62
50
  6
CONTINUOUS
  2
RHS_50_25_3
 70
0
 10
-7.9111298678656716
 20
-7.8737902651583343e-015
  0
ARC
  8
249
 62
50
  6
CONTINUOUS
 10
-9.0185620240435966
 20
-2.8377949002191167
 40
0.6229305878529745
 50
180
 51
270
  0
LINE
  8
249
 62
50
  6
CONTINUOUS
 10
-9.641492611896572
 20
-2.8377949002191181
 11
-9.641492611896572
 21
2.8377949002190941
  0
ARC
  8
249
 62
50
  6
CONTINUOUS
 10
-9.0185620240436126
 20
2.8377949002190954
 40
0.6229305878529745
 50
90
 51
180
  0
LINE
  8
249
 62
50
  6
CONTINUOUS
 10
-9.0185620240436162
 20
3.4607254880720699
 11
-6.8036977116774837
 21
3.4607254880720757
  0
ARC
  8
249
 62
50
  6
CONTINUOUS
 10
-6.8036977116774811
 20
2.8377949002191012
 40
0.6229305878529745
 50
0
 51
90
  0
LINE
  8
249
 62
50
  6
CONTINUOUS
 10
-6.1807671238245065
 20
2.8377949002191021
 11
-6.1807671238245065
 21
-2.8377949002191101
  0
ARC
  8
249
 62
50
  6
CONTINUOUS
 10
-6.8036977116774651
 20
-2.837794900219111
 40
0.6229305878529745
 50
270
 51
0
  0
LINE
  8
249
 62
50
  6
CONTINUOUS
 10
-6.8036977116774624
 20
-3.4607254880720855
 11
-9.0185620240435931
 21
-3.4607254880720912
  0
ARC
  8
249
 62
50
  6
CONTINUOUS
 10
-9.0185620240435966
 20
-2.8377949002191167
 40
0.20764352928432483
 50
180
 51
270
  0
LINE
  8
249
 62
50
  6
CONTINUOUS
 10
-9.2262055533279224
 20
-2.8377949002191167
 11
-9.2262055533279224
 21
2.8377949002190954
  0
ARC
  8
249
 62
50
  6
CONTINUOUS
 10
-9.0185620240436126
 20
2.8377949002190954
 40
0.20764352928432483
 50
90
 51
180
  0
LINE
  8
249
 62
50
  6
CONTINUOUS
 10
-9.0185620240436126
 20
3.0454384295034203
 11
-6.8036977116774811
 21
3.045438429503426
  0
ARC
  8
249
 62
50
  6
CONTINUOUS
 10
-6.8036977116774811
 20
2.8377949002191012
 40
0.20764352928432483
 50
0
 51
90
  0
LINE
  8
249
 62
50
  6
CONTINUOUS
 10
-6.5960541823931562
 20
2.8377949002191012
 11
-6.5960541823931562
 21
-2.837794900219111
  0
ARC
  8
249
 62
50
  6
CONTINUOUS
 10
-6.8036977116774651
 20
-2.837794900219111
 40
0.20764352928432483
 50
270
 51
0
  0
LINE
  8
249
 62
50
  6
CONTINUOUS
 10
-6.8036977116774651
 20
-3.0454384295034358
 11
-9.0185620240435966
 21
-3.0454384295034416
  0
ENDBLK
  0
BLOCK
  8
0
 62
5
  6
CONTINUOUS
  2
TELL_2
 70
0
 10
-7.9040160889254762
 20
0
  0
CIRCLE
  8
0
 62
50
  6
CONTINUOUS
 10
-7.9040160889239282
 20
6.5753784270834528
 40
0.86518137201802015
  0
LINE
  8
0
 62
5
  6
CENTRE
 10
-9.028751872547355
 20
6.5753784270834528
 11
-6.7792803053005022
 21
6.5753784270834528
  0
LINE
  8
0
 62
5
  6
CENTRE
 10
-7.9040160889239282
 20
7.7001142107068787
 11
-7.9040160889239282
 21
5.4506426434600259
  0
LINE
  8
0
 62
50
  6
CONTINUOUS
 10
-10.741810989143037
 20
-8.3057411716264937
 11
-5.0662211887048318
 21
-8.3057411716264937
  0
LINE
  8
0
 62
50
  6
CONTINUOUS
 10
-5.0662211887048318
 20
-8.3057411716264937
 11
-5.0662211887048318
 21
8.3057411711194966
  0
LINE
  8
0
 62
50
  6
CONTINUOUS
 10
-5.0662211887048318
 20
8.3057411711194966
 11
-10.741810989143037
 21
8.3057411711194966
  0
LINE
  8
0
 62
50
  6
CONTINUOUS
 10
-10.741810989143037
 20
8.3057411711194966
 11
-10.741810989143037
 21
-8.3057411716264937
  0
LINE
  8
0
 62
5
  6
HIDDEN
 10
-10.326523930574369
 20
-8.3057411716264937
 11
-10.326523930574369
 21
8.3057411711194966
  0
LINE
  8
0
 62
5
  6
HIDDEN
 10
-5.4815082472734833
 20
-8.3057411716264937
 11
-5.4815082472734833
 21
8.3057411711194931
  0
CIRCLE
  8
0
 62
50
  6
CONTINUOUS
 10
-7.9040160889239282
 20
-6.5753784275904534
 40
0.86518137201802015
  0
LINE
  8
0
 62
5
  6
CENTRE
 10
-9.028751872547355
 20
-6.5753784275904534
 11
-6.7792803053005022
 21
-6.5753784275904534
  0
LINE
  8
0
 62
5
  6
CENTRE
 10
-7.9040160889239282
 20
-5.4506426439670275
 11
-7.9040160889239282
 21
-7.7001142112138803
  0
ENDBLK
  0
BLOCK
  8
0
 62
5
  6
DASHDOT
  2
APPLIQUE_CPE_A_FACE
 70
0
 10
-7.9040160889239326
 20
0
  0
INSERT
  8
249
 62
50
  6
CONTINUOUS
  2
RHS_50_25_3
 10
-7.9111298678656716
 20
-7.8737902651583343e-015
 41
1.0
 42
1.0
 50
0.0
  0
INSERT
  8
0
 62
5
  6
CONTINUOUS
  2
TELL_2
 10
-7.9040160889254762
 20
0
 41
1.0
 42
1.0
 50
0.0
  0
LINE
  8
0
 62
5
  6
DASHED
 10
-8.4688064885772967
 20
3.4607254880720637
 11
-8.4688064885772967
 21
3.045438429503414
  0
LINE
  8
0
 62
5
  6
DASHED
 10
-7.3392256892705703
 20
3.4607254880720637
 11
-7.3392256892705703
 21
3.045438429503414
  0
LINE
  8
0
 62
5
  6
DASHED
 10
-8.5961611865383496
 20
3.4607254880720637
 11
-8.5961611865383496
 21
3.045438429503414
  0
LINE
  8
0
 62
5
  6
DASHED
 10
-7.2118709913095174
 20
3.4607254880720637
 11
-7.2118709913095174
 21
3.045438429503414
  0
LINE
  8
0
 62
5
  6
DASHDOT
 10
-7.9040160889239335
 20
2.7685803904576476
 11
-7.9040160889239335
 21
3.7375835271178302
  0
ENDBLK
  0
ENDSEC
  0
SECTION
  2
ENTITIES
  0
INSERT
  8
0
 62
5
  6
DASHDOT
  2
APPLIQUE_CPE_A_DROITE
 10
0
 20
0
 41
1.0
 42
1.0
 50
0.0
  0
INSERT
  8
0
 62
5
  6
DASHDOT
  2
APPLIQUE_CPE_A_FACE
 10
-7.9040160889239326
 20
0
 41
1.0
 42
1.0
 50
0.0
  0
ENDSEC
  0
EOF
