  0
SECTION
  2
HEADER
  9
$ACADVER
  1
AC1009
  9
$EXTMIN
 10
-2.5883838383839706
 20
-17.866161616047783
  9
$EXTMAX
 10
22.022363609884508
 20
7.1338383839522193
  9
$TEXTSTYLE
  7
STANDARD
  9
$DIMLFAC
 40
1
  9
$REGENMODE
 70
1
  9
$DRAGMODE
 70
2
  9
$DIMASO
 70
1
  9
$LTSCALE
 40
1.0000000000
  0
ENDSEC
  0
SECTION
  2
TABLES
  0
TABLE
  2
LTYPE
 70
2
  0
LTYPE
  2
CONTINUOUS
 70
64
  3
CONTINUOUS
 72
65
 73
0
 40
0.0000000000
  0
LTYPE
  2
DASHDOT
 70
64
  3
DASHDOT
 72
65
 73
4
 40
1.0000000000
 49
0.5000000000
 49
-0.2500000000
 49
0.0000000000
 49
-0.2500000000
  0
ENDTAB
  0
TABLE
  2
LAYER
 70
2
  0
LAYER
  2
0
 70
0
 62
2
  6
CONTINUOUS
  0
LAYER
  2
249
 70
0
 62
2
  6
CONTINUOUS
  0
ENDTAB
  0
TABLE
  2
STYLE
 70
0
  0
STYLE
  2
Standard
 70
0
 40
0
 41
1
 50
0
 71
0
 42
2.5
  3
txt
  4

  0
ENDTAB
  0
ENDSEC
  0
SECTION
  2
BLOCKS
  0
BLOCK
  8
0
 62
140
  6
CONTINUOUS
  2
TELL_2
 70
0
 10
7.1771993511123303e-012
 20
0.3287314887092076
  0
LINE
  8
0
 62
50
  6
CONTINUOUS
 10
-2.0833333333305224
 20
0.18939393939394486
 11
2.0833333333362645
 21
0.18939393939394486
  0
ARC
  8
0
 62
50
  6
CONTINUOUS
 10
2.0833333333333361
 20
-0.18939393939394486
 40
0.37878787878788972
 50
64.471220633252443
 51
90
  0
LINE
  8
0
 62
50
  6
CONTINUOUS
 10
2.2465774266249436
 20
0.15241247236789554
 11
1.8939393939425491
 21
0.50505050505051963
  0
LINE
  8
0
 62
50
  6
CONTINUOUS
 10
1.8939393939393911
 20
0.50505050505051963
 11
-1.8939393939395059
 21
0.50505050505051963
  0
LINE
  8
0
 62
50
  6
CONTINUOUS
 10
-1.8939393939364917
 20
0.50505050505051963
 11
-2.2465774266108904
 21
0.15241247237620673
  0
ARC
  8
0
 62
50
  6
CONTINUOUS
 10
-2.0833333333334654
 20
-0.18939393939394486
 40
0.37878787878788972
 50
90
 51
115.52877936426692
  0
ENDBLK
  0
BLOCK
  8
0
 62
5
  6
DASHDOT
  2
TELL_3
 70
0
 10
-5.7417594808898642e-014
 20
5.3661616161617713
  0
LINE
  8
0
 62
50
  6
CONTINUOUS
 10
0.3462643659912098
 20
5.9659090909092631
 11
0.69252873198246268
 21
5.3661616161617713
  0
LINE
  8
0
 62
50
  6
CONTINUOUS
 10
0.69252873198246268
 20
5.3661616161617713
 11
0.3462643659912098
 21
4.7664141414142787
  0
LINE
  8
0
 62
50
  6
CONTINUOUS
 10
0.3462643659912098
 20
4.7664141414142787
 11
-0.34626436599132465
 21
4.7664141414142787
  0
LINE
  8
0
 62
50
  6
CONTINUOUS
 10
-0.34626436599132465
 20
4.7664141414142787
 11
-0.69252873198257747
 21
5.3661616161617713
  0
LINE
  8
0
 62
50
  6
CONTINUOUS
 10
-0.69252873198257747
 20
5.3661616161617713
 11
-0.34626436599132465
 21
5.9659090909092631
  0
LINE
  8
0
 62
50
  6
CONTINUOUS
 10
-0.34626436599132465
 20
5.9659090909092631
 11
0.3462643659912098
 21
5.9659090909092631
  0
CIRCLE
  8
0
 62
50
  6
CONTINUOUS
 10
-5.7417594808898642e-014
 20
5.3661616161617713
 40
0.59974747474749202
  0
LINE
  8
0
 62
5
  6
DASHDOT
 10
-0.78722570167954997
 20
5.3661616161617713
 11
0.78722570167943506
 21
5.3661616161617713
  0
LINE
  8
0
 62
5
  6
DASHDOT
 10
-5.7417594808898642e-014
 20
4.6717171717173063
 11
-5.7417594808898642e-014
 21
6.0606060606062355
  0
ENDBLK
  0
BLOCK
  8
249
 62
5
  6
DASHDOT
  2
TELL_4
 70
0
 10
1.8923244067454593e-090
 20
1.8939393939394773
  0
CIRCLE
  8
249
 62
50
  6
CONTINUOUS
 10
1.8923244067454593e-090
 20
1.8939393939394773
 40
0.31101641414142311
  0
ARC
  8
249
 62
5
  6
CONTINUOUS
 10
1.8923244067454593e-090
 20
1.8939393939394773
 40
0.37878787878788972
 50
175.00000000000003
 51
90
  0
LINE
  8
249
 62
5
  6
DASHDOT
 10
3.0925418886045636e-017
 20
2.3989898989899969
 11
-3.0925418886045636e-017
 21
1.3888888888889577
  0
LINE
  8
249
 62
5
  6
DASHDOT
 10
-0.50505050505051963
 20
1.8939393939394773
 11
0.50505050505051963
 21
1.8939393939394773
  0
ENDBLK
  0
BLOCK
  8
0
 62
5
  6
DASHDOT
  2
TELL_1
 70
0
 10
4.3795270440468438e-011
 20
2.2725884025379445e-010
  0
INSERT
  8
0
 62
140
  6
CONTINUOUS
  2
TELL_2
 10
7.1771993511123303e-012
 20
0.3287314887092076
 41
1.0
 42
1.0
 50
0.0
  0
LINE
  8
0
 62
50
  6
CONTINUOUS
 10
-1.8939393939395059
 20
0.50505050505051963
 11
-1.8939393939395059
 21
4.1035353535354719
  0
LINE
  8
0
 62
50
  6
CONTINUOUS
 10
-1.8939393939395059
 20
6.6287878787880699
 11
-1.8939393939395059
 21
7.1338383838385901
  0
LINE
  8
0
 62
50
  6
CONTINUOUS
 10
1.8939393939393911
 20
7.1338383838385901
 11
1.8939393939393911
 21
6.6287878787880699
  0
LINE
  8
0
 62
50
  6
CONTINUOUS
 10
1.8939393939393911
 20
4.1035353535354719
 11
1.8939393939393911
 21
0.50505050505051963
  0
LINE
  8
0
 62
50
  6
CONTINUOUS
 10
-1.8939393939395059
 20
7.1338383838385901
 11
1.8939393939393911
 21
7.1338383838385901
  0
LINE
  8
0
 62
5
  6
CONTINUOUS
 10
1.4520202022062052
 20
7.1338383839522193
 11
1.4520202022062052
 21
6.6287878789016998
  0
LINE
  8
0
 62
5
  6
CONTINUOUS
 10
-1.4520202018342827
 20
0.50505050516414907
 11
-1.4520202018342827
 21
4.103535353649101
  0
LINE
  8
0
 62
5
  6
CONTINUOUS
 10
-1.4520202018342827
 20
6.6287878789016998
 11
-1.4520202018342827
 21
7.1338383839522193
  0
LINE
  8
0
 62
5
  6
CONTINUOUS
 10
1.4520202022062052
 20
4.103535353649101
 11
1.4520202022062052
 21
0.50505050516414907
  0
LINE
  8
0
 62
50
  6
CONTINUOUS
 10
2.5883838383838556
 20
6.6287878787880699
 11
2.5883838383838556
 21
4.1035353535354719
  0
LINE
  8
0
 62
50
  6
CONTINUOUS
 10
-2.5883838383839706
 20
4.1035353535354719
 11
-2.5883838383839706
 21
6.6287878787880699
  0
LINE
  8
0
 62
50
  6
CONTINUOUS
 10
-2.5883838383839706
 20
6.6287878787880699
 11
2.5883838383838556
 21
6.6287878787880699
  0
LINE
  8
0
 62
50
  6
CONTINUOUS
 10
-2.5883838383839706
 20
4.1035353535354719
 11
2.5883838383838556
 21
4.1035353535354719
  0
LINE
  8
0
 62
5
  6
CONTINUOUS
 10
-1.9570707068848023
 20
4.2297979799117309
 11
-1.9570707068848023
 21
6.50252525263907
  0
LINE
  8
0
 62
5
  6
CONTINUOUS
 10
1.9570707072567248
 20
6.50252525263907
 11
1.9570707072567248
 21
4.2297979799117309
  0
LINE
  8
0
 62
50
  6
CONTINUOUS
 10
-2.2727272727273959
 20
-1.452020202020244
 11
-2.4621212121213407
 21
-1.452020202020244
  0
LINE
  8
0
 62
50
  6
CONTINUOUS
 10
-2.4621212121213407
 20
-1.452020202020244
 11
-2.4621212121184124
 21
-0.18939393939394486
  0
LINE
  8
0
 62
50
  6
CONTINUOUS
 10
2.4621212121212257
 20
-1.452020202020244
 11
2.462121212124154
 21
-0.18939393939394486
  0
LINE
  8
0
 62
50
  6
CONTINUOUS
 10
2.4621212121212257
 20
-1.452020202020244
 11
2.2727272727272809
 21
-1.452020202020244
  0
LINE
  8
0
 62
50
  6
CONTINUOUS
 10
2.2727272727272809
 20
-1.452020202020244
 11
2.2727272727302092
 21
-0.18939393939394486
  0
LINE
  8
0
 62
50
  6
CONTINUOUS
 10
-2.0833333333305224
 20
0.18939393939394486
 11
2.0833333333362645
 21
0.18939393939394486
  0
LINE
  8
0
 62
50
  6
CONTINUOUS
 10
2.4621212121212257
 20
-1.0101010101010393
 11
2.2727272727272809
 21
-1.0101010101010393
  0
LINE
  8
0
 62
50
  6
CONTINUOUS
 10
2.0833333333362645
 20
0
 11
-2.0833333333305224
 21
0
  0
LINE
  8
0
 62
50
  6
CONTINUOUS
 10
-2.2727272727273959
 20
-1.452020202020244
 11
-2.2727272727244676
 21
-0.18939393939394486
  0
LINE
  8
0
 62
50
  6
CONTINUOUS
 10
-2.2727272727273959
 20
-1.0101010101010393
 11
-2.4621212121213407
 21
-1.0101010101010393
  0
INSERT
  8
0
 62
5
  6
DASHDOT
  2
TELL_3
 10
-5.7417594808898642e-014
 20
5.3661616161617713
 41
1.0
 42
1.0
 50
0.0
  0
LINE
  8
0
 62
50
  6
CONTINUOUS
 10
-1.8939393939395059
 20
0.50505050505051963
 11
1.8939393939393911
 21
0.50505050505051963
  0
ARC
  8
0
 62
50
  6
CONTINUOUS
 10
-2.0833333333334365
 20
-0.18939393939394486
 40
0.18939393939394486
 50
90
 51
180
  0
ARC
  8
0
 62
50
  6
CONTINUOUS
 10
2.0833333333333361
 20
-0.18939393939394486
 40
0.18939393939394486
 50
0
 51
90
  0
ARC
  8
0
 62
50
  6
CONTINUOUS
 10
-2.0833333333334654
 20
-0.18939393939394486
 40
0.37878787878788972
 50
90
 51
180
  0
ARC
  8
0
 62
50
  6
CONTINUOUS
 10
2.0833333333333361
 20
-0.18939393939394486
 40
0.37878787878788972
 50
0
 51
90
  0
LINE
  8
0
 62
50
  6
CONTINUOUS
 10
-2.2465774266108904
 20
0.15241247237620673
 11
-1.8939393939364917
 21
0.50505050505051963
  0
LINE
  8
0
 62
50
  6
CONTINUOUS
 10
2.2465774266249436
 20
0.15241247236789554
 11
1.8939393939425491
 21
0.50505050505051963
  0
INSERT
  8
249
 62
5
  6
DASHDOT
  2
TELL_4
 10
1.8923244067454593e-090
 20
1.8939393939394773
 41
1.0
 42
1.0
 50
0.0
  0
LINE
  8
0
 62
5
  6
DASHDOT
 10
-3.0925418886045636e-017
 20
1.3888888888889577
 11
-3.0925418886045636e-017
 21
-0.32481043522932329
  0
ENDBLK
  0
BLOCK
  8
0
 62
140
  6
CONTINUOUS
  2
TELL_5
 70
0
 10
17.445343407883609
 20
0.32622642484367992
  0
LINE
  8
0
 62
50
  6
CONTINUOUS
 10
19.181454518900576
 20
0.50505050505051963
 11
19.497111084557151
 21
0.18939393939394486
  0
LINE
  8
0
 62
50
  6
CONTINUOUS
 10
19.497111084670781
 20
0.18939393928031545
 11
19.153693769253042
 21
0.18939393928031545
  0
LINE
  8
0
 62
50
  6
CONTINUOUS
 10
19.153693726148965
 20
0.18939393928031545
 11
19.120163302675518
 21
0.185713745617372
  0
LINE
  8
0
 62
50
  6
CONTINUOUS
 10
19.120163304917906
 20
0.1857137411325411
 11
19.002781833984059
 21
0.1772884015726631
  0
LINE
  8
0
 62
50
  6
CONTINUOUS
 10
19.002781833765415
 20
0.17728840221197931
 11
18.983149844474468
 21
0.17648705529889708
  0
LINE
  8
0
 62
50
  6
CONTINUOUS
 10
18.9831499108681
 20
0.17648705529889708
 11
18.876903062185878
 21
0.15590043845467016
  0
LINE
  8
0
 62
50
  6
CONTINUOUS
 10
18.876903062183924
 20
0.1559004384659958
 11
18.739535327056156
 21
0.14740234463685459
  0
LINE
  8
0
 62
50
  6
CONTINUOUS
 10
18.739535327056156
 20
0.14740234464324228
 11
15.835494923015656
 21
0.14740234464324228
  0
LINE
  8
0
 62
50
  6
CONTINUOUS
 10
15.835494923015656
 20
0.14740234463684024
 11
15.698127187887888
 21
0.15590043846598145
  0
LINE
  8
0
 62
50
  6
CONTINUOUS
 10
15.698127187986588
 20
0.15590043903427209
 11
15.591880330075149
 21
0.17648705838159032
  0
LINE
  8
0
 62
50
  6
CONTINUOUS
 10
15.591880330075149
 20
0.17648705838159032
 11
15.572248414464585
 21
0.17728839682689793
  0
LINE
  8
0
 62
50
  6
CONTINUOUS
 10
15.572248416087751
 20
0.1772884015726918
 11
15.45486694515392
 21
0.18571374113262723
  0
LINE
  8
0
 62
50
  6
CONTINUOUS
 10
15.454866947396308
 20
0.18571374561740073
 11
15.421336523922989
 21
0.18939393928031545
  0
LINE
  8
0
 62
50
  6
CONTINUOUS
 10
15.421336480819559
 20
0.18939393928031545
 11
15.393575731096449
 21
0.18939393928031545
  0
LINE
  8
0
 62
50
  6
CONTINUOUS
 10
15.393575731096449
 20
0.18939393928031545
 11
15.393575731096449
 21
0.50505050493689019
  0
LINE
  8
0
 62
50
  6
CONTINUOUS
 10
15.393575731096449
 20
0.50505050493689019
 11
19.181454518975361
 21
0.50505050493689019
  0
ENDBLK
  0
BLOCK
  8
0
 62
5
  6
DASHDOT
  2
TELL_6
 70
0
 10
20.444080781526875
 20
5.3661616161617713
  0
LINE
  8
0
 62
50
  6
CONTINUOUS
 10
20.475646438167288
 20
6.0574494948360433
 11
20.902823779437501
 21
6.0574494948360433
  0
ARC
  8
0
 62
50
  6
CONTINUOUS
 10
20.603487347258238
 20
5.8846275251390718
 40
0.34564393939394933
 50
317.88538956950413
 51
30
  0
ARC
  8
0
 62
50
  6
CONTINUOUS
 10
20.444080781601631
 20
5.3661616160481413
 40
0.50505050505051963
 50
325.41628176499029
 51
34.583718235009712
  0
ARC
  8
0
 62
50
  6
CONTINUOUS
 10
20.603487347258238
 20
4.8476957069572117
 40
0.34564393939394933
 50
330
 51
42.114610430495873
  0
LINE
  8
0
 62
50
  6
CONTINUOUS
 10
20.902823779437501
 20
4.6748737372602545
 11
20.475646438167288
 21
4.6748737372602545
  0
LINE
  8
0
 62
50
  6
CONTINUOUS
 10
20.859887700632598
 20
5.6528332378347592
 11
20.475646438167288
 21
5.6528332378321036
  0
LINE
  8
0
 62
50
  6
CONTINUOUS
 10
20.859887700632598
 20
5.0794899942615377
 11
20.475646438167288
 21
5.0794899942641791
  0
LINE
  8
0
 62
50
  6
CONTINUOUS
 10
20.94913128665215
 20
5.8846275251390718
 11
20.94913128665215
 21
4.8476957069572117
  0
LINE
  8
0
 62
5
  6
CONTINUOUS
 10
20.444080781601631
 20
5.7449494948360309
 11
17.9865997209955
 21
5.7449494948360256
  0
LINE
  8
0
 62
5
  6
CONTINUOUS
 10
17.9865997209955
 20
5.7449494948360256
 11
17.918828256349062
 21
5.6771780301895616
  0
LINE
  8
0
 62
5
  6
CONTINUOUS
 10
17.918828256349062
 20
5.6771780301895616
 11
17.918828256349062
 21
5.0551452019067113
  0
LINE
  8
0
 62
5
  6
CONTINUOUS
 10
17.918828256349062
 20
5.0551452019067113
 11
17.9865997209955
 21
4.9873737372602465
  0
LINE
  8
0
 62
5
  6
CONTINUOUS
 10
17.9865997209955
 20
4.9873737372602465
 11
20.444080781601631
 21
4.9873737372602518
  0
LINE
  8
0
 62
5
  6
CONTINUOUS
 10
17.9865997209955
 20
5.7449494948360256
 11
17.9865997209955
 21
4.9873737372602465
  0
LINE
  8
0
 62
50
  6
CONTINUOUS
 10
20.475646438167288
 20
4.6748737372602545
 11
20.475646438167288
 21
6.0574494948360433
  0
LINE
  8
0
 62
50
  6
CONTINUOUS
 10
20.475646438167288
 20
5.965909090795634
 11
20.444080781601631
 21
5.965909090795634
  0
LINE
  8
0
 62
50
  6
CONTINUOUS
 10
20.444080781601631
 20
4.7664141413006496
 11
20.475646438167288
 21
4.7664141413006496
  0
LINE
  8
0
 62
5
  6
CONTINUOUS
 10
17.918828256349062
 20
5.6771780301895616
 11
20.444080781601631
 21
5.6771780301895669
  0
LINE
  8
0
 62
5
  6
CONTINUOUS
 10
17.918828256349062
 20
5.0551452019067113
 11
20.444080781601631
 21
5.0551452019067167
  0
LINE
  8
0
 62
5
  6
DASHDOT
 10
17.792565630086433
 20
5.366161616048136
 11
21.07539391291478
 21
5.3661616160481413
  0
ENDBLK
  0
BLOCK
  8
0
 62
140
  6
CONTINUOUS
  2
TELL_7
 70
0
 10
12.394838357339539
 20
0.32622642484367992
  0
LINE
  8
0
 62
50
  6
CONTINUOUS
 10
10.658727246322572
 20
0.50505050505051441
 11
10.343070680665997
 21
0.18939393939393859
  0
LINE
  8
0
 62
50
  6
CONTINUOUS
 10
10.343070680552367
 20
0.18939393928030915
 11
10.68648799597009
 21
0.18939393928031015
  0
LINE
  8
0
 62
50
  6
CONTINUOUS
 10
10.686488039074167
 20
0.18939393928031015
 11
10.720018462547642
 21
0.18571374561736684
  0
LINE
  8
0
 62
50
  6
CONTINUOUS
 10
10.720018460305228
 20
0.18571374113253594
 11
10.837399931239073
 21
0.17728840157265824
  0
LINE
  8
0
 62
50
  6
CONTINUOUS
 10
10.837399931457719
 20
0.17728840221197445
 11
10.857031920748664
 21
0.17648705529889236
  0
LINE
  8
0
 62
50
  6
CONTINUOUS
 10
10.857031854355034
 20
0.17648705529889236
 11
10.96327870303727
 21
0.15590043845466578
  0
LINE
  8
0
 62
50
  6
CONTINUOUS
 10
10.963278703039236
 20
0.15590043846599139
 11
11.100646438167004
 21
0.14740234463685062
  0
LINE
  8
0
 62
50
  6
CONTINUOUS
 10
11.100646438167004
 20
0.14740234464323834
 11
14.004686842207493
 21
0.14740234464324722
  0
LINE
  8
0
 62
50
  6
CONTINUOUS
 10
14.004686842207493
 20
0.14740234463684515
 11
14.14205457733526
 21
0.15590043846598683
  0
LINE
  8
0
 62
50
  6
CONTINUOUS
 10
14.142054577236559
 20
0.15590043903427747
 11
14.248301435147999
 21
0.17648705838159606
  0
LINE
  8
0
 62
50
  6
CONTINUOUS
 10
14.248301435147999
 20
0.17648705838159606
 11
14.267933350758563
 21
0.17728839682690367
  0
LINE
  8
0
 62
50
  6
CONTINUOUS
 10
14.267933349135395
 20
0.17728840157269754
 11
14.385314820069226
 21
0.18571374113263328
  0
LINE
  8
0
 62
50
  6
CONTINUOUS
 10
14.38531481782684
 20
0.18571374561740678
 11
14.418845241300158
 21
0.18939393928032164
  0
LINE
  8
0
 62
50
  6
CONTINUOUS
 10
14.41884528440359
 20
0.18939393928032164
 11
14.446606034126697
 21
0.18939393928032172
  0
LINE
  8
0
 62
50
  6
CONTINUOUS
 10
14.446606034126697
 20
0.18939393928032172
 11
14.446606034126697
 21
0.50505050493689652
  0
LINE
  8
0
 62
50
  6
CONTINUOUS
 10
14.446606034126697
 20
0.50505050493689652
 11
10.6587272462478
 21
0.50505050493688497
  0
ENDBLK
  0
BLOCK
  8
0
 62
5
  6
DASHDOT
  2
TELL_8
 70
0
 10
9.3961009836962734
 20
5.3661616161617713
  0
LINE
  8
0
 62
50
  6
CONTINUOUS
 10
9.364535327055858
 20
6.0574494948360433
 11
8.9373579857856456
 21
6.0574494948360433
  0
ARC
  8
0
 62
50
  6
CONTINUOUS
 10
9.2366944179649106
 20
5.8846275251390718
 40
0.34564393939394933
 50
150
 51
222.11461043049587
  0
ARC
  8
0
 62
50
  6
CONTINUOUS
 10
9.3961009836215155
 20
5.3661616160481413
 40
0.50505050505051963
 50
145.41628176499029
 51
214.58371823500966
  0
ARC
  8
0
 62
50
  6
CONTINUOUS
 10
9.2366944179649106
 20
4.8476957069572117
 40
0.34564393939394933
 50
137.88538956950413
 51
210
  0
LINE
  8
0
 62
50
  6
CONTINUOUS
 10
8.9373579857856456
 20
4.6748737372602402
 11
9.364535327055858
 21
4.6748737372602402
  0
LINE
  8
0
 62
50
  6
CONTINUOUS
 10
8.9802940645905487
 20
5.6528332378347592
 11
9.364535327055858
 21
5.6528332378321036
  0
LINE
  8
0
 62
50
  6
CONTINUOUS
 10
8.9802940645905487
 20
5.0794899942615235
 11
9.364535327055858
 21
5.0794899942641791
  0
LINE
  8
0
 62
50
  6
CONTINUOUS
 10
8.8910504785709961
 20
5.8846275251390718
 11
8.8910504785709961
 21
4.8476957069572117
  0
LINE
  8
0
 62
5
  6
CONTINUOUS
 10
9.3961009836215155
 20
5.7449494948360309
 11
11.853582044227634
 21
5.7449494948360389
  0
LINE
  8
0
 62
5
  6
CONTINUOUS
 10
11.853582044227634
 20
5.7449494948360389
 11
11.921353508874098
 21
5.677178030189574
  0
LINE
  8
0
 62
5
  6
CONTINUOUS
 10
11.921353508874098
 20
5.677178030189574
 11
11.921353508874098
 21
5.0551452019067238
  0
LINE
  8
0
 62
5
  6
CONTINUOUS
 10
11.921353508874098
 20
5.0551452019067238
 11
11.853582044227634
 21
4.9873737372602589
  0
LINE
  8
0
 62
5
  6
CONTINUOUS
 10
11.853582044227634
 20
4.9873737372602589
 11
9.3961009836215155
 21
4.9873737372602518
  0
LINE
  8
0
 62
5
  6
CONTINUOUS
 10
11.853582044227634
 20
5.7449494948360389
 11
11.853582044227634
 21
4.9873737372602589
  0
LINE
  8
0
 62
50
  6
CONTINUOUS
 10
9.364535327055858
 20
4.6748737372602402
 11
9.364535327055858
 21
6.0574494948360433
  0
LINE
  8
0
 62
50
  6
CONTINUOUS
 10
9.364535327055858
 20
5.965909090795634
 11
9.3961009836215155
 21
5.965909090795634
  0
LINE
  8
0
 62
50
  6
CONTINUOUS
 10
9.3961009836215155
 20
4.7664141413006496
 11
9.364535327055858
 21
4.7664141413006496
  0
LINE
  8
0
 62
5
  6
CONTINUOUS
 10
11.921353508874098
 20
5.677178030189574
 11
9.3961009836215155
 21
5.6771780301895669
  0
LINE
  8
0
 62
5
  6
CONTINUOUS
 10
11.921353508874098
 20
5.0551452019067238
 11
9.3961009836215155
 21
5.0551452019067167
  0
LINE
  8
0
 62
5
  6
DASHDOT
 10
12.047616135136728
 20
5.3661616160481485
 11
8.7647878523083662
 21
5.3661616160481413
  0
ENDBLK
  0
BLOCK
  8
249
 62
5
  6
DASHDOT
  2
TELL_9
 70
0
 10
12.55266664018732
 20
1.8939393939394773
  0
CIRCLE
  8
249
 62
50
  6
CONTINUOUS
 10
12.55266664018732
 20
1.8939393939394773
 40
0.31101641414142311
  0
ARC
  8
249
 62
5
  6
CONTINUOUS
 10
12.55266664018732
 20
1.8939393939394773
 40
0.37878787878788972
 50
175.00000000000003
 51
90
  0
LINE
  8
249
 62
5
  6
DASHDOT
 10
12.55266664018732
 20
2.3989898989899969
 11
12.55266664018732
 21
1.3888888888889577
  0
LINE
  8
249
 62
5
  6
DASHDOT
 10
12.047616135136801
 20
1.8939393939394773
 11
13.05771714523784
 21
1.8939393939394773
  0
ENDBLK
  0
BLOCK
  8
0
 62
5
  6
DASHDOT
  2
TELL_10
 70
0
 10
17.287515125035828
 20
1.8939393939394773
  0
CIRCLE
  8
0
 62
50
  6
CONTINUOUS
 10
17.287515125035828
 20
1.8939393939394773
 40
0.31101641414142311
  0
ARC
  8
0
 62
5
  6
CONTINUOUS
 10
17.287515125035828
 20
1.8939393939394773
 40
0.37878787878788972
 50
175.00000000000003
 51
90
  0
LINE
  8
0
 62
5
  6
DASHDOT
 10
17.287515125035828
 20
2.3989898989899969
 11
17.287515125035828
 21
1.3888888888889577
  0
LINE
  8
0
 62
5
  6
DASHDOT
 10
16.782464619985308
 20
1.8939393939394773
 11
17.792565630086347
 21
1.8939393939394773
  0
ENDBLK
  0
BLOCK
  8
0
 62
5
  6
DASHDOT
  2
TELL_11
 70
0
 10
12.55266664018732
 20
5.3661616160481849
  0
CIRCLE
  8
0
 62
50
  6
CONTINUOUS
 10
12.55266664018732
 20
5.3661616160481849
 40
0.31101641414142311
  0
ARC
  8
0
 62
5
  6
CONTINUOUS
 10
12.55266664018732
 20
5.3661616160481849
 40
0.37878787878788972
 50
175.00000000000003
 51
90
  0
LINE
  8
0
 62
5
  6
DASHDOT
 10
12.55266664018732
 20
5.8712121210987043
 11
12.55266664018732
 21
4.8611111109976655
  0
LINE
  8
0
 62
5
  6
DASHDOT
 10
12.047616135136801
 20
5.3661616160481849
 11
13.05771714523784
 21
5.3661616160481849
  0
ENDBLK
  0
BLOCK
  8
0
 62
5
  6
DASHDOT
  2
TELL_12
 70
0
 10
17.287515125035828
 20
5.3661616160481849
  0
CIRCLE
  8
0
 62
50
  6
CONTINUOUS
 10
17.287515125035828
 20
5.3661616160481849
 40
0.31101641414142311
  0
ARC
  8
0
 62
5
  6
CONTINUOUS
 10
17.287515125035828
 20
5.3661616160481849
 40
0.37878787878788972
 50
175.00000000000003
 51
90
  0
LINE
  8
0
 62
5
  6
DASHDOT
 10
17.287515125035828
 20
5.8712121210987043
 11
17.287515125035828
 21
4.8611111109976655
  0
LINE
  8
0
 62
5
  6
DASHDOT
 10
16.782464619985308
 20
5.3661616160481849
 11
17.792565630086347
 21
5.3661616160481849
  0
ENDBLK
  0
BLOCK
  8
0
 62
50
  6
CONTINUOUS
  2
3_51_CSED
 70
0
 10
14.920090882639318
 20
2.2725884025379445e-010
  0
INSERT
  8
0
 62
140
  6
CONTINUOUS
  2
TELL_5
 10
17.445343407883609
 20
0.32622642484367992
 41
1.0
 42
1.0
 50
0.0
  0
LINE
  8
0
 62
50
  6
CONTINUOUS
 10
19.181454518900576
 20
0.50505050505051963
 11
19.497111084557151
 21
0.18939393939394486
  0
LINE
  8
0
 62
50
  6
CONTINUOUS
 10
19.181454518975361
 20
7.1338383837249602
 11
19.181454518975361
 21
6.6287878786744407
  0
LINE
  8
0
 62
50
  6
CONTINUOUS
 10
19.181454518975361
 20
4.1035353534218428
 11
19.181454518975361
 21
0.50505050493689019
  0
LINE
  8
0
 62
50
  6
CONTINUOUS
 10
15.393575731096449
 20
0.18939393928031545
 11
15.393575731096449
 21
7.1338383837249602
  0
LINE
  8
0
 62
50
  6
CONTINUOUS
 10
15.393575731096449
 20
7.1338383837249602
 11
19.181454518975361
 21
7.1338383837249602
  0
LINE
  8
0
 62
5
  6
CONTINUOUS
 10
18.739535326981372
 20
7.1338383838385901
 11
18.739535326981372
 21
0.50505050505051963
  0
LINE
  8
0
 62
5
  6
CONTINUOUS
 10
15.835494922940883
 20
0.50505050505051963
 11
15.835494922940883
 21
7.1338383838385901
  0
LINE
  8
0
 62
50
  6
CONTINUOUS
 10
19.153693726148965
 20
0.18939393928031545
 11
19.120163302675518
 21
0.185713745617372
  0
LINE
  8
0
 62
50
  6
CONTINUOUS
 10
15.454866947396308
 20
0.18571374561740073
 11
15.421336523922989
 21
0.18939393928031545
  0
LINE
  8
0
 62
50
  6
CONTINUOUS
 10
18.992060579581416
 20
6.6287878786744407
 11
20.444080781601631
 21
6.6287878786744407
  0
LINE
  8
0
 62
50
  6
CONTINUOUS
 10
20.444080781601631
 20
6.6287878786744407
 11
20.444080781601631
 21
4.1035353534218428
  0
LINE
  8
0
 62
50
  6
CONTINUOUS
 10
19.120163304917906
 20
0.1857137411325411
 11
19.002781833984059
 21
0.1772884015726631
  0
LINE
  8
0
 62
50
  6
CONTINUOUS
 10
15.572248416087751
 20
0.1772884015726918
 11
15.45486694515392
 21
0.18571374113262723
  0
LINE
  8
0
 62
50
  6
CONTINUOUS
 10
18.9831499108681
 20
0.17648705529889708
 11
18.876903062185878
 21
0.15590043845467016
  0
LINE
  8
0
 62
50
  6
CONTINUOUS
 10
19.002781833765415
 20
0.17728840221197931
 11
18.983149844474468
 21
0.17648705529889708
  0
LINE
  8
0
 62
50
  6
CONTINUOUS
 10
15.698127187986588
 20
0.15590043903427209
 11
15.591880330075149
 21
0.17648705838159032
  0
LINE
  8
0
 62
50
  6
CONTINUOUS
 10
15.591880330075149
 20
0.17648705838159032
 11
15.572248414464585
 21
0.17728839682689793
  0
LINE
  8
0
 62
50
  6
CONTINUOUS
 10
18.876903062183924
 20
0.1559004384659958
 11
18.739535327056156
 21
0.14740234463685459
  0
LINE
  8
0
 62
50
  6
CONTINUOUS
 10
15.835494923015656
 20
0.14740234463684024
 11
15.698127187887888
 21
0.15590043846598145
  0
LINE
  8
0
 62
50
  6
CONTINUOUS
 10
18.739535327056156
 20
0.14740234464324228
 11
15.835494923015656
 21
0.14740234464324228
  0
LINE
  8
0
 62
50
  6
CONTINUOUS
 10
7.8178181553386557
 20
0.18939393950757427
 11
15.421336480819559
 21
0.18939393950757427
  0
LINE
  8
0
 62
50
  6
CONTINUOUS
 10
7.8178181553386557
 20
-1.0101010099874099
 11
7.8178181553386557
 21
0.18939393950757427
  0
LINE
  8
0
 62
50
  6
CONTINUOUS
 10
19.153693769253042
 20
0.18939393928031545
 11
22.022363609884508
 21
0.18939393928031545
  0
LINE
  8
0
 62
50
  6
CONTINUOUS
 10
22.022363609884508
 20
-1.0101010099874099
 11
22.022363609884508
 21
0.18939393950757427
  0
LINE
  8
0
 62
5
  6
CONTINUOUS
 10
7.8178181552638835
 20
-0.18939393916668601
 11
22.022363609809748
 21
-0.18939393916668601
  0
LINE
  8
0
 62
50
  6
CONTINUOUS
 10
22.022363609884508
 20
-1.0101010099874099
 11
21.7672214454699
 21
-1.4520202019066144
  0
LINE
  8
0
 62
50
  6
CONTINUOUS
 10
21.7672214454699
 20
-1.4520202019066144
 11
8.0729603197532747
 21
-1.4520202019066144
  0
LINE
  8
0
 62
50
  6
CONTINUOUS
 10
8.0729603197532747
 20
-1.4520202019066144
 11
7.8178181553386557
 21
-1.0101010099874099
  0
LINE
  8
0
 62
5
  6
CONTINUOUS
 10
19.812767650213726
 20
6.5025252524118109
 11
19.812767650213726
 21
4.2297979796844727
  0
LINE
  8
0
 62
50
  6
CONTINUOUS
 10
18.992060579581416
 20
4.1035353534218428
 11
20.444080781601631
 21
4.1035353534218428
  0
LINE
  8
0
 62
50
  6
CONTINUOUS
 10
18.992060579581416
 20
4.1035353534218428
 11
18.992060579581416
 21
6.6287878786744407
  0
LINE
  8
0
 62
50
  6
CONTINUOUS
 10
15.393575731096449
 20
0.50505050493689019
 11
19.181454518975361
 21
0.50505050493689019
  0
INSERT
  8
0
 62
5
  6
DASHDOT
  2
TELL_6
 10
20.444080781526875
 20
5.3661616161617713
 41
1.0
 42
1.0
 50
0.0
  0
INSERT
  8
0
 62
140
  6
CONTINUOUS
  2
TELL_7
 10
12.394838357339539
 20
0.32622642484367992
 41
1.0
 42
1.0
 50
0.0
  0
LINE
  8
0
 62
50
  6
CONTINUOUS
 10
10.658727246322572
 20
0.50505050505051963
 11
10.343070680665997
 21
0.18939393939394486
  0
LINE
  8
0
 62
50
  6
CONTINUOUS
 10
10.6587272462478
 20
7.1338383837249602
 11
10.6587272462478
 21
6.6287878786744407
  0
LINE
  8
0
 62
50
  6
CONTINUOUS
 10
10.6587272462478
 20
4.1035353534218428
 11
10.6587272462478
 21
0.50505050493689019
  0
LINE
  8
0
 62
50
  6
CONTINUOUS
 10
14.446606034126697
 20
0.18939393928031545
 11
14.446606034126697
 21
7.1338383837249602
  0
LINE
  8
0
 62
50
  6
CONTINUOUS
 10
14.446606034126697
 20
7.1338383837249602
 11
10.6587272462478
 21
7.1338383837249602
  0
LINE
  8
0
 62
5
  6
CONTINUOUS
 10
11.100646438241776
 20
7.1338383838385901
 11
11.100646438241776
 21
0.50505050505051963
  0
LINE
  8
0
 62
5
  6
CONTINUOUS
 10
14.004686842282265
 20
0.50505050505051963
 11
14.004686842282265
 21
7.1338383838385901
  0
LINE
  8
0
 62
50
  6
CONTINUOUS
 10
10.686488039074167
 20
0.18939393928031545
 11
10.720018462547642
 21
0.185713745617372
  0
LINE
  8
0
 62
50
  6
CONTINUOUS
 10
14.38531481782684
 20
0.18571374561740073
 11
14.418845241300158
 21
0.18939393928031545
  0
LINE
  8
0
 62
50
  6
CONTINUOUS
 10
10.848121185641745
 20
6.6287878786744407
 11
9.3961009836215155
 21
6.6287878786744407
  0
LINE
  8
0
 62
50
  6
CONTINUOUS
 10
9.3961009836215155
 20
6.6287878786744407
 11
9.3961009836215155
 21
4.1035353534218428
  0
LINE
  8
0
 62
50
  6
CONTINUOUS
 10
10.720018460305228
 20
0.1857137411325411
 11
10.837399931239073
 21
0.1772884015726631
  0
LINE
  8
0
 62
50
  6
CONTINUOUS
 10
14.267933349135395
 20
0.1772884015726918
 11
14.385314820069226
 21
0.18571374113262723
  0
LINE
  8
0
 62
50
  6
CONTINUOUS
 10
10.857031854355034
 20
0.17648705529889708
 11
10.96327870303727
 21
0.15590043845467016
  0
LINE
  8
0
 62
50
  6
CONTINUOUS
 10
10.837399931457719
 20
0.17728840221197931
 11
10.857031920748664
 21
0.17648705529889708
  0
LINE
  8
0
 62
50
  6
CONTINUOUS
 10
14.142054577236559
 20
0.15590043903427209
 11
14.248301435147999
 21
0.17648705838159032
  0
LINE
  8
0
 62
50
  6
CONTINUOUS
 10
14.248301435147999
 20
0.17648705838159032
 11
14.267933350758563
 21
0.17728839682689793
  0
LINE
  8
0
 62
50
  6
CONTINUOUS
 10
10.963278703039236
 20
0.1559004384659958
 11
11.100646438167004
 21
0.14740234463685459
  0
LINE
  8
0
 62
50
  6
CONTINUOUS
 10
14.004686842207493
 20
0.14740234463684024
 11
14.14205457733526
 21
0.15590043846598145
  0
LINE
  8
0
 62
50
  6
CONTINUOUS
 10
11.100646438167004
 20
0.14740234464324228
 11
14.004686842207493
 21
0.14740234464324228
  0
LINE
  8
0
 62
5
  6
CONTINUOUS
 10
10.027414115009423
 20
6.5025252524118109
 11
10.027414115009423
 21
4.2297979796844727
  0
LINE
  8
0
 62
50
  6
CONTINUOUS
 10
10.848121185641745
 20
4.1035353534218428
 11
9.3961009836215155
 21
4.1035353534218428
  0
LINE
  8
0
 62
50
  6
CONTINUOUS
 10
10.848121185641745
 20
4.1035353534218428
 11
10.848121185641745
 21
6.6287878786744407
  0
LINE
  8
0
 62
50
  6
CONTINUOUS
 10
14.446606034126697
 20
0.50505050493689019
 11
10.6587272462478
 21
0.50505050493689019
  0
INSERT
  8
0
 62
5
  6
DASHDOT
  2
TELL_8
 10
9.3961009836962734
 20
5.3661616161617713
 41
1.0
 42
1.0
 50
0.0
  0
LINE
  8
0
 62
5
  6
DASHDOT
 10
9.2382727007932282
 20
-0.56324570137264718
 11
9.2382727007932282
 21
0.56818181818183455
  0
LINE
  8
0
 62
5
  6
DASHDOT
 10
20.601909064429918
 20
-0.56324570137264718
 11
20.601909064429918
 21
0.56818181818183455
  0
INSERT
  8
249
 62
5
  6
DASHDOT
  2
TELL_9
 10
12.55266664018732
 20
1.8939393939394773
 41
1.0
 42
1.0
 50
0.0
  0
INSERT
  8
0
 62
5
  6
DASHDOT
  2
TELL_10
 10
17.287515125035828
 20
1.8939393939394773
 41
1.0
 42
1.0
 50
0.0
  0
INSERT
  8
0
 62
5
  6
DASHDOT
  2
TELL_11
 10
12.55266664018732
 20
5.3661616160481849
 41
1.0
 42
1.0
 50
0.0
  0
INSERT
  8
0
 62
5
  6
DASHDOT
  2
TELL_12
 10
17.287515125035828
 20
5.3661616160481849
 41
1.0
 42
1.0
 50
0.0
  0
ENDBLK
  0
BLOCK
  8
0
 62
5
  6
DASHDOT
  2
TELL_14
 70
0
 10
2.1861749223485479e-010
 20
-16.09848484823279
  0
LINE
  8
0
 62
50
  6
CONTINUOUS
 10
0.69128787897387722
 20
-16.130050504937341
 11
0.69128787897387789
 21
-16.557227846207539
  0
ARC
  8
0
 62
50
  6
CONTINUOUS
 10
0.51846590927690561
 20
-16.257891414028261
 40
0.34564393939394933
 50
227.88538956950413
 51
300
  0
ARC
  8
0
 62
50
  6
CONTINUOUS
 10
1.859755895860229e-010
 20
-16.098484848371683
 40
0.50505050505051963
 50
235.41628176499029
 51
304.58371823500971
  0
ARC
  8
0
 62
50
  6
CONTINUOUS
 10
-0.51846590890495403
 20
-16.257891414028261
 40
0.34564393939394933
 50
240
 51
312.11461043049587
  0
LINE
  8
0
 62
50
  6
CONTINUOUS
 10
-0.69128787860192531
 20
-16.557227846207539
 11
-0.69128787860192598
 21
-16.130050504937341
  0
LINE
  8
0
 62
50
  6
CONTINUOUS
 10
0.2866716219725941
 20
-16.514291767402636
 11
0.2866716219699379
 21
-16.130050504937341
  0
LINE
  8
0
 62
50
  6
CONTINUOUS
 10
-0.28667162160064158
 20
-16.514291767402636
 11
-0.2866716215979867
 21
-16.130050504937341
  0
LINE
  8
0
 62
50
  6
CONTINUOUS
 10
0.51846590927690606
 20
-16.603535353422203
 11
-0.51846590890495359
 21
-16.603535353422203
  0
LINE
  8
0
 62
5
  6
CONTINUOUS
 10
0.37878787897386529
 20
-16.098484848371683
 11
0.37878787897386151
 21
-13.64100378776555
  0
LINE
  8
0
 62
5
  6
CONTINUOUS
 10
0.37878787897386151
 20
-13.64100378776555
 11
0.31101641432739696
 21
-13.573232323119086
  0
LINE
  8
0
 62
5
  6
CONTINUOUS
 10
0.31101641432739696
 20
-13.573232323119086
 11
-0.31101641395545343
 21
-13.573232323119086
  0
LINE
  8
0
 62
5
  6
CONTINUOUS
 10
-0.31101641395545343
 20
-13.573232323119086
 11
-0.37878787860191793
 21
-13.64100378776555
  0
LINE
  8
0
 62
5
  6
CONTINUOUS
 10
-0.37878787860191793
 20
-13.64100378776555
 11
-0.37878787860191415
 21
-16.098484848371683
  0
LINE
  8
0
 62
5
  6
CONTINUOUS
 10
0.37878787897386151
 20
-13.64100378776555
 11
-0.37878787860191793
 21
-13.64100378776555
  0
LINE
  8
0
 62
50
  6
CONTINUOUS
 10
-0.69128787860192598
 20
-16.130050504937341
 11
0.69128787897387722
 21
-16.130050504937341
  0
LINE
  8
0
 62
50
  6
CONTINUOUS
 10
0.59974747493346769
 20
-16.130050504937341
 11
0.59974747493346769
 21
-16.098484848371683
  0
LINE
  8
0
 62
50
  6
CONTINUOUS
 10
-0.59974747456151645
 20
-16.098484848371683
 11
-0.59974747456151645
 21
-16.130050504937341
  0
LINE
  8
0
 62
5
  6
CONTINUOUS
 10
0.31101641432739696
 20
-13.573232323119086
 11
0.31101641432740079
 21
-16.098484848371683
  0
LINE
  8
0
 62
5
  6
CONTINUOUS
 10
-0.31101641395545343
 20
-13.573232323119086
 11
-0.3110164139554496
 21
-16.098484848371683
  0
ENDBLK
  0
BLOCK
  8
0
 62
5
  6
DASHDOT
  2
TELL_15
 70
0
 10
2.1861749223485479e-010
 20
-5.0505050505051958
  0
LINE
  8
0
 62
50
  6
CONTINUOUS
 10
0.69128787897387722
 20
-5.0189393938244722
 11
0.69128787897387656
 21
-4.5917620525542739
  0
ARC
  8
0
 62
50
  6
CONTINUOUS
 10
0.51846590927690517
 20
-4.891098484733555
 40
0.34564393939394933
 50
60
 51
132.11461043049587
  0
ARC
  8
0
 62
50
  6
CONTINUOUS
 10
1.8597558958602251e-010
 20
-5.0505050503901314
 40
0.50505050505051963
 50
55.416281764990288
 51
124.58371823500971
  0
ARC
  8
0
 62
50
  6
CONTINUOUS
 10
-0.51846590890495448
 20
-4.891098484733555
 40
0.34564393939394933
 50
47.885389569504127
 51
120
  0
LINE
  8
0
 62
50
  6
CONTINUOUS
 10
-0.69128787860192664
 20
-4.5917620525542775
 11
-0.69128787860192598
 21
-5.0189393938244757
  0
LINE
  8
0
 62
50
  6
CONTINUOUS
 10
0.28667162197259277
 20
-4.6346981313591789
 11
0.2866716219699379
 21
-5.018939393824474
  0
LINE
  8
0
 62
50
  6
CONTINUOUS
 10
-0.28667162160064297
 20
-4.6346981313591789
 11
-0.2866716215979867
 21
-5.018939393824474
  0
LINE
  8
0
 62
50
  6
CONTINUOUS
 10
0.51846590927690472
 20
-4.545454545339612
 11
-0.51846590890495492
 21
-4.545454545339612
  0
LINE
  8
0
 62
5
  6
CONTINUOUS
 10
0.37878787897386529
 20
-5.0505050503901314
 11
0.37878787897386912
 21
-7.5079861109962645
  0
LINE
  8
0
 62
5
  6
CONTINUOUS
 10
0.37878787897386912
 20
-7.5079861109962645
 11
0.31101641432740457
 21
-7.5757575756427284
  0
LINE
  8
0
 62
5
  6
CONTINUOUS
 10
0.31101641432740457
 20
-7.5757575756427284
 11
-0.31101641395544577
 21
-7.5757575756427302
  0
LINE
  8
0
 62
5
  6
CONTINUOUS
 10
-0.31101641395544577
 20
-7.5757575756427302
 11
-0.37878787860191032
 21
-7.5079861109962662
  0
LINE
  8
0
 62
5
  6
CONTINUOUS
 10
-0.37878787860191032
 20
-7.5079861109962662
 11
-0.37878787860191415
 21
-5.0505050503901314
  0
LINE
  8
0
 62
5
  6
CONTINUOUS
 10
0.37878787897386912
 20
-7.5079861109962645
 11
-0.37878787860191032
 21
-7.5079861109962662
  0
LINE
  8
0
 62
50
  6
CONTINUOUS
 10
-0.69128787860192598
 20
-5.0189393938244757
 11
0.69128787897387722
 21
-5.0189393938244722
  0
LINE
  8
0
 62
50
  6
CONTINUOUS
 10
0.59974747493346769
 20
-5.0189393938244722
 11
0.59974747493346769
 21
-5.0505050503901296
  0
LINE
  8
0
 62
50
  6
CONTINUOUS
 10
-0.59974747456151645
 20
-5.0505050503901332
 11
-0.59974747456151645
 21
-5.0189393938244757
  0
LINE
  8
0
 62
5
  6
CONTINUOUS
 10
0.31101641432740457
 20
-7.5757575756427284
 11
0.31101641432740079
 21
-5.0505050503901314
  0
LINE
  8
0
 62
5
  6
CONTINUOUS
 10
-0.31101641395544577
 20
-7.5757575756427302
 11
-0.3110164139554496
 21
-5.0505050503901314
  0
ENDBLK
  0
BLOCK
  8
0
 62
5
  6
DASHDOT
  2
TELL_13
 70
0
 10
4.3795270440468438e-011
 20
-10.57449494924273
  0
LINE
  8
0
 62
50
  6
CONTINUOUS
 10
2.4621212123072445
 20
-3.4722222221079755
 11
2.4621212123102874
 21
-5.3030303029208605
  0
LINE
  8
0
 62
50
  6
CONTINUOUS
 10
2.4621212123072445
 20
-6.5025252524110932
 11
2.4621212123072587
 21
-14.646464646350722
  0
LINE
  8
0
 62
50
  6
CONTINUOUS
 10
2.4621212123072587
 20
-15.842118728774452
 11
2.4621212123072587
 21
-17.676767676653839
  0
LINE
  8
0
 62
50
  6
CONTINUOUS
 10
-2.4621212119353078
 20
-17.676767676653839
 11
-2.4621212119353078
 21
-15.842118728774466
  0
LINE
  8
0
 62
50
  6
CONTINUOUS
 10
-2.4621212119353078
 20
-14.646464646350722
 11
-2.4621212119353078
 21
-6.5025252524110932
  0
LINE
  8
0
 62
50
  6
CONTINUOUS
 10
-2.4621212119322786
 20
-5.3030303029127932
 11
-2.462121211935322
 21
-3.4722222221079755
  0
LINE
  8
0
 62
50
  6
CONTINUOUS
 10
-2.462121211935322
 20
-3.4722222221079755
 11
2.4621212123072445
 21
-3.4722222221079755
  0
LINE
  8
0
 62
50
  6
CONTINUOUS
 10
-2.4621212119353078
 20
-17.676767676653839
 11
2.4621212123072587
 21
-17.676767676653839
  0
LINE
  8
0
 62
5
  6
CONTINUOUS
 10
-2.0833333331147759
 20
-17.67676767654093
 11
-2.0833333331147759
 21
-16.08541410709644
  0
LINE
  8
0
 62
5
  6
CONTINUOUS
 10
-2.0833333331147759
 20
-15.756475738409559
 11
-2.0833333331128236
 21
-5.3925141605434126
  0
LINE
  8
0
 62
5
  6
CONTINUOUS
 10
-2.0833333331128236
 20
-5.0632601658433032
 11
-2.0833333331147759
 21
-3.4722222219950636
  0
LINE
  8
0
 62
5
  6
CONTINUOUS
 10
2.083333333552011
 20
-16.08541410709644
 11
2.083333333552011
 21
-17.67676767654093
  0
LINE
  8
0
 62
50
  6
CONTINUOUS
 10
1.9570707072578157
 20
-16.098484848371683
 11
-1.9570707068837114
 21
-16.098484848370965
  0
LINE
  8
0
 62
50
  6
CONTINUOUS
 10
-2.5883838381968611
 20
-15.467171717058534
 11
-2.5883838381979376
 21
-14.646464646350722
  0
LINE
  8
0
 62
50
  6
CONTINUOUS
 10
-2.5883838381979376
 20
-14.646464646350722
 11
-2.2727272725413625
 21
-14.646464646350722
  0
LINE
  8
0
 62
50
  6
CONTINUOUS
 10
-2.2727272725413625
 20
-14.646464646350722
 11
-2.2727272725402861
 21
-15.467171717058534
  0
LINE
  8
0
 62
50
  6
CONTINUOUS
 10
-1.9570707068837114
 20
-15.782828282715109
 11
1.9570707072578157
 21
-15.782828282715109
  0
LINE
  8
0
 62
50
  6
CONTINUOUS
 10
2.2727272729143904
 20
-15.467171717058534
 11
2.2727272729133139
 21
-14.646464646350722
  0
LINE
  8
0
 62
50
  6
CONTINUOUS
 10
2.2727272729133139
 20
-14.646464646350722
 11
2.5883838385698885
 21
-14.646464646350722
  0
LINE
  8
0
 62
50
  6
CONTINUOUS
 10
2.5883838385698885
 20
-14.646464646350722
 11
2.5883838385709654
 21
-15.467171717058534
  0
LINE
  8
0
 62
50
  6
CONTINUOUS
 10
1.8939393941265008
 20
-11.489898989785692
 11
1.8939393941254241
 21
-14.39393939382618
  0
LINE
  8
0
 62
50
  6
CONTINUOUS
 10
1.4520202022072961
 20
-14.835858585745385
 11
-1.4520202018331918
 21
-14.835858585744667
  0
LINE
  8
0
 62
50
  6
CONTINUOUS
 10
-1.8939393937523965
 20
-14.39393939382618
 11
-1.8939393937523965
 21
-11.489898989785692
  0
LINE
  8
0
 62
50
  6
CONTINUOUS
 10
-1.4520202018331918
 20
-11.047979797866487
 11
1.4520202022072961
 21
-11.047979797866487
  0
LINE
  8
0
 62
50
  6
CONTINUOUS
 10
-1.6414141412271366
 20
-11.489898989785692
 11
-1.6414141412271366
 21
-14.39393939382618
  0
LINE
  8
0
 62
50
  6
CONTINUOUS
 10
-1.4520202018331918
 20
-14.583333333220125
 11
1.4520202022072961
 21
-14.583333333220125
  0
LINE
  8
0
 62
50
  6
CONTINUOUS
 10
1.6414141416012409
 20
-14.39393939382618
 11
1.6414141416012409
 21
-11.489898989785692
  0
LINE
  8
0
 62
50
  6
CONTINUOUS
 10
1.4520202022072961
 20
-11.300505050391747
 11
-1.4520202018331918
 21
-11.300505050391029
  0
ARC
  8
0
 62
50
  6
CONTINUOUS
 10
-1.4520202018342683
 20
-11.489898989784974
 40
0.18939393939394486
 50
90
 51
180.00000000021711
  0
ARC
  8
0
 62
50
  6
CONTINUOUS
 10
-1.4520202018331774
 20
-14.393939393825463
 40
0.18939393939394486
 50
180.00000000021711
 51
270
  0
ARC
  8
0
 62
50
  6
CONTINUOUS
 10
1.4520202022062194
 20
-14.39393939382618
 40
0.18939393939394486
 50
270
 51
0
  0
ARC
  8
0
 62
50
  6
CONTINUOUS
 10
1.4520202022072817
 20
-11.489898989784974
 40
0.18939393939394486
 50
359.99999999978286
 51
90
  0
ARC
  8
0
 62
50
  6
CONTINUOUS
 10
-1.4520202018342683
 20
-14.393939393825463
 40
0.4419191919192047
 50
180.00000000009305
 51
270
  0
ARC
  8
0
 62
50
  6
CONTINUOUS
 10
1.4520202022062194
 20
-14.393939393825463
 40
0.4419191919192047
 50
270
 51
359.99999999990695
  0
ARC
  8
0
 62
50
  6
CONTINUOUS
 10
-1.4520202018331774
 20
-11.489898989784974
 40
0.4419191919192047
 50
90
 51
180.00000000009305
  0
ARC
  8
0
 62
50
  6
CONTINUOUS
 10
1.4520202022062194
 20
-11.489898989785692
 40
0.4419191919192047
 50
0
 51
90
  0
ARC
  8
0
 62
50
  6
CONTINUOUS
 10
-1.9570707068847879
 20
-15.467171717057816
 40
0.31565656565657474
 50
180.00000000013029
 51
270
  0
ARC
  8
0
 62
50
  6
CONTINUOUS
 10
1.957070707256739
 20
-15.467171717058534
 40
0.31565656565657474
 50
270
 51
0
  0
ARC
  8
0
 62
50
  6
CONTINUOUS
 10
-1.9570707068847879
 20
-15.467171717057816
 40
0.63131313131314948
 50
180.00000000006514
 51
270
  0
ARC
  8
0
 62
50
  6
CONTINUOUS
 10
1.957070707256739
 20
-15.467171717057816
 40
0.63131313131314948
 50
270
 51
359.99999999993486
  0
INSERT
  8
0
 62
5
  6
DASHDOT
  2
TELL_14
 10
2.1861749223485479e-010
 20
-16.09848484823279
 41
1.0
 42
1.0
 50
0.0
  0
LINE
  8
0
 62
5
  6
CONTINUOUS
 10
2.0833333334867272
 20
-15.756475738522472
 11
2.0833333334845165
 21
-5.392514160543298
  0
LINE
  8
0
 62
5
  6
CONTINUOUS
 10
2.0833333334845165
 20
-5.0632601658432463
 11
2.0833333334867272
 21
-3.4722222221079755
  0
LINE
  8
0
 62
5
  6
DASHDOT
 10
1.8597558958602269e-010
 20
-17.866161616047783
 11
1.8597558958602269e-010
 21
-3.2828282827140303
  0
LINE
  8
0
 62
50
  6
CONTINUOUS
 10
1.9570707072578157
 20
-5.0505050503901314
 11
-1.9570707068837114
 21
-5.0505050503908491
  0
LINE
  8
0
 62
50
  6
CONTINUOUS
 10
-2.5883838381968611
 20
-5.6818181817032807
 11
-2.5883838381979376
 21
-6.5025252524110932
  0
LINE
  8
0
 62
50
  6
CONTINUOUS
 10
-2.5883838381979376
 20
-6.5025252524110932
 11
-2.2727272725413625
 21
-6.5025252524110932
  0
LINE
  8
0
 62
50
  6
CONTINUOUS
 10
-2.2727272725413625
 20
-6.5025252524110932
 11
-2.2727272725402861
 21
-5.6818181817032807
  0
LINE
  8
0
 62
50
  6
CONTINUOUS
 10
-1.9570707068837114
 20
-5.3661616160467061
 11
1.9570707072578157
 21
-5.3661616160467061
  0
LINE
  8
0
 62
50
  6
CONTINUOUS
 10
2.2727272729143904
 20
-5.6818181817032807
 11
2.2727272729133139
 21
-6.5025252524110932
  0
LINE
  8
0
 62
50
  6
CONTINUOUS
 10
2.2727272729133139
 20
-6.5025252524110932
 11
2.5883838385698885
 21
-6.5025252524110932
  0
LINE
  8
0
 62
50
  6
CONTINUOUS
 10
2.5883838385698885
 20
-6.5025252524110932
 11
2.5883838385709654
 21
-5.6818181817032807
  0
LINE
  8
0
 62
50
  6
CONTINUOUS
 10
1.8939393941265008
 20
-9.6590909089761237
 11
1.8939393941254241
 21
-6.7550505049356353
  0
LINE
  8
0
 62
50
  6
CONTINUOUS
 10
1.4520202022072961
 20
-6.3131313130164308
 11
-1.4520202018331918
 21
-6.3131313130171485
  0
LINE
  8
0
 62
50
  6
CONTINUOUS
 10
-1.8939393937523965
 20
-6.7550505049356353
 11
-1.8939393937523965
 21
-9.6590909089761237
  0
LINE
  8
0
 62
50
  6
CONTINUOUS
 10
-1.4520202018331918
 20
-10.101010100895328
 11
1.4520202022072961
 21
-10.101010100895328
  0
LINE
  8
0
 62
50
  6
CONTINUOUS
 10
-1.6414141412271366
 20
-9.6590909089761237
 11
-1.6414141412271366
 21
-6.7550505049356353
  0
LINE
  8
0
 62
50
  6
CONTINUOUS
 10
-1.4520202018331918
 20
-6.5656565655416905
 11
1.4520202022072961
 21
-6.5656565655416905
  0
LINE
  8
0
 62
50
  6
CONTINUOUS
 10
1.6414141416012409
 20
-6.7550505049356353
 11
1.6414141416012409
 21
-9.6590909089761237
  0
LINE
  8
0
 62
50
  6
CONTINUOUS
 10
1.4520202022072961
 20
-9.8484848483700684
 11
-1.4520202018331918
 21
-9.8484848483707861
  0
ARC
  8
0
 62
50
  6
CONTINUOUS
 10
-1.4520202018342683
 20
-9.6590909089768413
 40
0.18939393939394486
 50
179.99999999978289
 51
270
  0
ARC
  8
0
 62
50
  6
CONTINUOUS
 10
-1.4520202018331774
 20
-6.755050504936353
 40
0.18939393939394486
 50
90
 51
179.99999999978289
  0
ARC
  8
0
 62
50
  6
CONTINUOUS
 10
1.4520202022062194
 20
-6.7550505049356353
 40
0.18939393939394486
 50
0
 51
90
  0
ARC
  8
0
 62
50
  6
CONTINUOUS
 10
1.4520202022072817
 20
-9.6590909089768413
 40
0.18939393939394486
 50
270
 51
2.1714186004828662e-010
  0
ARC
  8
0
 62
50
  6
CONTINUOUS
 10
-1.4520202018342683
 20
-6.755050504936353
 40
0.4419191919192047
 50
90
 51
179.99999999990695
  0
ARC
  8
0
 62
50
  6
CONTINUOUS
 10
1.4520202022062194
 20
-6.755050504936353
 40
0.4419191919192047
 50
9.305267667514272e-011
 51
90
  0
ARC
  8
0
 62
50
  6
CONTINUOUS
 10
-1.4520202018331774
 20
-9.6590909089768413
 40
0.4419191919192047
 50
179.99999999990695
 51
270
  0
ARC
  8
0
 62
50
  6
CONTINUOUS
 10
1.4520202022062194
 20
-9.6590909089761237
 40
0.4419191919192047
 50
270
 51
0
  0
ARC
  8
0
 62
50
  6
CONTINUOUS
 10
-1.9570707068847879
 20
-5.6818181817039983
 40
0.31565656565657474
 50
90
 51
179.99999999986971
  0
ARC
  8
0
 62
50
  6
CONTINUOUS
 10
1.957070707256739
 20
-5.6818181817032807
 40
0.31565656565657474
 50
0
 51
90
  0
ARC
  8
0
 62
50
  6
CONTINUOUS
 10
-1.9570707068847879
 20
-5.6818181817039983
 40
0.63131313131314948
 50
90
 51
179.99999999993486
  0
ARC
  8
0
 62
50
  6
CONTINUOUS
 10
1.957070707256739
 20
-5.6818181817039983
 40
0.63131313131314948
 50
6.5142558014485985e-011
 51
90
  0
INSERT
  8
0
 62
5
  6
DASHDOT
  2
TELL_15
 10
2.1861749223485479e-010
 20
-5.0505050505051958
 41
1.0
 42
1.0
 50
0.0
  0
ENDBLK
  0
ENDSEC
  0
SECTION
  2
ENTITIES
  0
INSERT
  8
0
 62
5
  6
DASHDOT
  2
TELL_1
 10
4.3795270440468438e-011
 20
2.2725884025379445e-010
 41
1.0
 42
1.0
 50
0.0
  0
INSERT
  8
0
 62
50
  6
CONTINUOUS
  2
3_51_CSED
 10
14.920090882639318
 20
2.2725884025379445e-010
 41
1.0
 42
1.0
 50
0.0
  0
INSERT
  8
0
 62
5
  6
DASHDOT
  2
TELL_13
 10
4.3795270440468438e-011
 20
-10.57449494924273
 41
1.0
 42
1.0
 50
0.0
  0
ENDSEC
  0
EOF
