  0
SECTION
  2
HEADER
  9
$ACADVER
  1
AC1009
  9
$EXTMIN
 10
-3.1931464174277622
 20
-16.199376946949354
  9
$EXTMAX
 10
21.499908214187112
 20
8.8006230530506446
  9
$TEXTSTYLE
  7
STANDARD
  9
$DIMLFAC
 40
1
  9
$REGENMODE
 70
1
  9
$DRAGMODE
 70
2
  9
$DIMASO
 70
1
  9
$LTSCALE
 40
1.0000000000
  0
ENDSEC
  0
SECTION
  2
TABLES
  0
TABLE
  2
LTYPE
 70
2
  0
LTYPE
  2
CONTINUOUS
 70
64
  3
CONTINUOUS
 72
65
 73
0
 40
0.0000000000
  0
LTYPE
  2
DASHDOT
 70
64
  3
DASHDOT
 72
65
 73
4
 40
1.0000000000
 49
0.5000000000
 49
-0.2500000000
 49
0.0000000000
 49
-0.2500000000
  0
ENDTAB
  0
TABLE
  2
LAYER
 70
2
  0
LAYER
  2
0
 70
0
 62
2
  6
CONTINUOUS
  0
LAYER
  2
249
 70
0
 62
2
  6
CONTINUOUS
  0
ENDTAB
  0
TABLE
  2
STYLE
 70
0
  0
STYLE
  2
Standard
 70
0
 40
0
 41
1
 50
0
 71
0
 42
2.5
  3
txt
  4

  0
ENDTAB
  0
ENDSEC
  0
SECTION
  2
BLOCKS
  0
BLOCK
  8
0
 62
140
  6
CONTINUOUS
  2
TELL_2
 70
0
 10
8.8541150873039403e-012
 20
0.40553791130254557
  0
LINE
  8
0
 62
50
  6
CONTINUOUS
 10
-2.5700934579260637
 20
0.23364485981178229
 11
2.5700934579331469
 21
0.23364485981178229
  0
ARC
  8
0
 62
50
  6
CONTINUOUS
 10
2.5700934579295347
 20
-0.23364485981178229
 40
0.46728971962356458
 50
64.471220633252443
 51
90
  0
LINE
  8
0
 62
50
  6
CONTINUOUS
 10
2.7714786945124459
 20
0.188022863107005
 11
2.3364485981216481
 21
0.62305295949808615
  0
LINE
  8
0
 62
50
  6
CONTINUOUS
 10
2.3364485981177521
 20
0.62305295949808615
 11
-2.3364485981178937
 21
0.62305295949808615
  0
LINE
  8
0
 62
50
  6
CONTINUOUS
 10
-2.3364485981141749
 20
0.62305295949808615
 11
-2.7714786944951095
 21
0.18802286311725805
  0
ARC
  8
0
 62
50
  6
CONTINUOUS
 10
-2.5700934579296937
 20
-0.23364485981178229
 40
0.46728971962356458
 50
90
 51
115.52877936426692
  0
ENDBLK
  0
BLOCK
  8
0
 62
5
  6
DASHDOT
  2
TELL_3
 70
0
 10
-7.0832920698431524e-014
 20
6.6199376946671649
  0
LINE
  8
0
 62
50
  6
CONTINUOUS
 10
0.42716725523910004
 20
7.3598130840711429
 11
0.85433451047825326
 21
6.6199376946671649
  0
LINE
  8
0
 62
50
  6
CONTINUOUS
 10
0.85433451047825326
 20
6.6199376946671649
 11
0.42716725523910004
 21
5.8800623052631877
  0
LINE
  8
0
 62
50
  6
CONTINUOUS
 10
0.42716725523910004
 20
5.8800623052631877
 11
-0.42716725523924176
 21
5.8800623052631877
  0
LINE
  8
0
 62
50
  6
CONTINUOUS
 10
-0.42716725523924176
 20
5.8800623052631877
 11
-0.85433451047839493
 21
6.6199376946671649
  0
LINE
  8
0
 62
50
  6
CONTINUOUS
 10
-0.85433451047839493
 20
6.6199376946671649
 11
-0.42716725523924176
 21
7.3598130840711429
  0
LINE
  8
0
 62
50
  6
CONTINUOUS
 10
-0.42716725523924176
 20
7.3598130840711429
 11
0.42716725523910004
 21
7.3598130840711429
  0
CIRCLE
  8
0
 62
50
  6
CONTINUOUS
 10
-7.0832920698431524e-014
 20
6.6199376946671649
 40
0.73987538940397735
  0
LINE
  8
0
 62
5
  6
DASHDOT
 10
-0.97115694038428613
 20
6.6199376946671649
 11
0.97115694038414446
 21
6.6199376946671649
  0
LINE
  8
0
 62
5
  6
DASHDOT
 10
-7.0832920698431524e-014
 20
5.7632398753572964
 11
-7.0832920698431524e-014
 21
7.4766355139770333
  0
ENDBLK
  0
BLOCK
  8
249
 62
5
  6
DASHDOT
  2
TELL_4
 70
0
 10
3.6220330757098588e-090
 20
2.3364485981178587
  0
CIRCLE
  8
249
 62
50
  6
CONTINUOUS
 10
3.6220330757098588e-090
 20
2.3364485981178587
 40
0.38368380062091517
  0
ARC
  8
249
 62
5
  6
CONTINUOUS
 10
3.6220330757098588e-090
 20
2.3364485981178587
 40
0.46728971962356458
 50
175.00000000000003
 51
90
  0
LINE
  8
249
 62
5
  6
DASHDOT
 10
3.8150984046123004e-017
 20
2.9595015576159445
 11
-3.8150984046123004e-017
 21
1.7133956386197724
  0
LINE
  8
249
 62
5
  6
DASHDOT
 10
-0.62305295949808615
 20
2.3364485981178587
 11
0.62305295949808615
 21
2.3364485981178587
  0
ENDBLK
  0
BLOCK
  8
0
 62
5
  6
DASHDOT
  2
TELL_1
 70
0
 10
4.0197682496349236e-011
 20
1.4017835006230308e-010
  0
INSERT
  8
0
 62
140
  6
CONTINUOUS
  2
TELL_2
 10
8.8541150873039403e-012
 20
0.40553791130254557
 41
1.0
 42
1.0
 50
0.0
  0
LINE
  8
0
 62
50
  6
CONTINUOUS
 10
-2.3364485981178937
 20
0.62305295949808615
 11
-2.3364485981178937
 21
5.0623052959219503
  0
LINE
  8
0
 62
50
  6
CONTINUOUS
 10
-2.3364485981178937
 20
8.1775700934123812
 11
-2.3364485981178937
 21
8.800623052910467
  0
LINE
  8
0
 62
50
  6
CONTINUOUS
 10
2.3364485981177521
 20
8.800623052910467
 11
2.3364485981177521
 21
8.1775700934123812
  0
LINE
  8
0
 62
50
  6
CONTINUOUS
 10
2.3364485981177521
 20
5.0623052959219503
 11
2.3364485981177521
 21
0.62305295949808615
  0
LINE
  8
0
 62
50
  6
CONTINUOUS
 10
-2.3364485981178937
 20
8.800623052910467
 11
2.3364485981177521
 21
8.800623052910467
  0
LINE
  8
0
 62
5
  6
CONTINUOUS
 10
1.7912772587864079
 20
8.8006230530506446
 11
1.7912772587864079
 21
8.1775700935525588
  0
LINE
  8
0
 62
5
  6
CONTINUOUS
 10
-1.7912772583275876
 20
0.62305295963826446
 11
-1.7912772583275876
 21
5.062305296062128
  0
LINE
  8
0
 62
5
  6
CONTINUOUS
 10
-1.7912772583275876
 20
8.1775700935525588
 11
-1.7912772583275876
 21
8.8006230530506446
  0
LINE
  8
0
 62
5
  6
CONTINUOUS
 10
1.7912772587864079
 20
5.062305296062128
 11
1.7912772587864079
 21
0.62305295963826446
  0
LINE
  8
0
 62
50
  6
CONTINUOUS
 10
3.1931464174276205
 20
8.1775700934123812
 11
3.1931464174276205
 21
5.0623052959219503
  0
LINE
  8
0
 62
50
  6
CONTINUOUS
 10
-3.1931464174277622
 20
5.0623052959219503
 11
-3.1931464174277622
 21
8.1775700934123812
  0
LINE
  8
0
 62
50
  6
CONTINUOUS
 10
-3.1931464174277622
 20
8.1775700934123812
 11
3.1931464174276205
 21
8.1775700934123812
  0
LINE
  8
0
 62
50
  6
CONTINUOUS
 10
-3.1931464174277622
 20
5.0623052959219503
 11
3.1931464174276205
 21
5.0623052959219503
  0
LINE
  8
0
 62
5
  6
CONTINUOUS
 10
-2.4143302178256736
 20
5.2180685359366494
 11
-2.4143302178256736
 21
8.0218068536780383
  0
LINE
  8
0
 62
5
  6
CONTINUOUS
 10
2.4143302182844941
 20
8.0218068536780383
 11
2.4143302182844941
 21
5.2180685359366494
  0
LINE
  8
0
 62
50
  6
CONTINUOUS
 10
-2.8037383177414585
 20
-1.7912772585569976
 11
-3.0373831775532407
 21
-1.7912772585569976
  0
LINE
  8
0
 62
50
  6
CONTINUOUS
 10
-3.0373831775532407
 20
-1.7912772585569976
 11
-3.0373831775496285
 21
-0.23364485981178229
  0
LINE
  8
0
 62
50
  6
CONTINUOUS
 10
3.0373831775530991
 20
-1.7912772585569976
 11
3.0373831775567117
 21
-0.23364485981178229
  0
LINE
  8
0
 62
50
  6
CONTINUOUS
 10
3.0373831775530991
 20
-1.7912772585569976
 11
2.8037383177413169
 21
-1.7912772585569976
  0
LINE
  8
0
 62
50
  6
CONTINUOUS
 10
2.8037383177413169
 20
-1.7912772585569976
 11
2.8037383177449291
 21
-0.23364485981178229
  0
LINE
  8
0
 62
50
  6
CONTINUOUS
 10
-2.5700934579260637
 20
0.23364485981178229
 11
2.5700934579331469
 21
0.23364485981178229
  0
LINE
  8
0
 62
50
  6
CONTINUOUS
 10
3.0373831775530991
 20
-1.2461059189961723
 11
2.8037383177413169
 21
-1.2461059189961723
  0
LINE
  8
0
 62
50
  6
CONTINUOUS
 10
2.5700934579331469
 20
0
 11
-2.5700934579260637
 21
0
  0
LINE
  8
0
 62
50
  6
CONTINUOUS
 10
-2.8037383177414585
 20
-1.7912772585569976
 11
-2.8037383177378459
 21
-0.23364485981178229
  0
LINE
  8
0
 62
50
  6
CONTINUOUS
 10
-2.8037383177414585
 20
-1.2461059189961723
 11
-3.0373831775532407
 21
-1.2461059189961723
  0
INSERT
  8
0
 62
5
  6
DASHDOT
  2
TELL_3
 10
-7.0832920698431524e-014
 20
6.6199376946671649
 41
1.0
 42
1.0
 50
0.0
  0
LINE
  8
0
 62
50
  6
CONTINUOUS
 10
-2.3364485981178937
 20
0.62305295949808615
 11
2.3364485981177521
 21
0.62305295949808615
  0
ARC
  8
0
 62
50
  6
CONTINUOUS
 10
-2.5700934579296586
 20
-0.23364485981178229
 40
0.23364485981178229
 50
90
 51
180
  0
ARC
  8
0
 62
50
  6
CONTINUOUS
 10
2.5700934579295347
 20
-0.23364485981178229
 40
0.23364485981178229
 50
0
 51
90
  0
ARC
  8
0
 62
50
  6
CONTINUOUS
 10
-2.5700934579296937
 20
-0.23364485981178229
 40
0.46728971962356458
 50
90
 51
180
  0
ARC
  8
0
 62
50
  6
CONTINUOUS
 10
2.5700934579295347
 20
-0.23364485981178229
 40
0.46728971962356458
 50
0
 51
90
  0
LINE
  8
0
 62
50
  6
CONTINUOUS
 10
-2.7714786944951095
 20
0.18802286311725805
 11
-2.3364485981141749
 21
0.62305295949808615
  0
LINE
  8
0
 62
50
  6
CONTINUOUS
 10
2.7714786945124459
 20
0.188022863107005
 11
2.3364485981216481
 21
0.62305295949808615
  0
INSERT
  8
249
 62
5
  6
DASHDOT
  2
TELL_4
 10
3.6220330757098588e-090
 20
2.3364485981178587
 41
1.0
 42
1.0
 50
0.0
  0
LINE
  8
0
 62
5
  6
DASHDOT
 10
-3.8150984046123004e-017
 20
1.7133956386197724
 11
-3.8150984046123004e-017
 21
-0.33374079291561298
  0
ENDBLK
  0
BLOCK
  8
0
 62
140
  6
CONTINUOUS
  2
TELL_5
 70
0
 10
15.658786718800311
 20
0.40244755228152956
  0
LINE
  8
0
 62
50
  6
CONTINUOUS
 10
12.932930020996185
 20
0.23364485995196066
 11
13.322338120682488
 21
0.62305295963826446
  0
LINE
  8
0
 62
50
  6
CONTINUOUS
 10
13.322338120774731
 20
0.62305295949808615
 11
17.995235317010376
 21
0.62305295949808615
  0
LINE
  8
0
 62
50
  6
CONTINUOUS
 10
17.995235316918134
 20
0.62305295963826446
 11
18.38464341660444
 21
0.23364485995196066
  0
LINE
  8
0
 62
50
  6
CONTINUOUS
 10
18.384643416744616
 20
0.23364485981178229
 11
17.960988410811108
 21
0.23364485981178229
  0
LINE
  8
0
 62
50
  6
CONTINUOUS
 10
17.960988357635987
 20
0.23364485981178229
 11
17.919623723070806
 21
0.22910480781640088
  0
LINE
  8
0
 62
50
  6
CONTINUOUS
 10
17.919623725837152
 20
0.22910480228371227
 11
17.774816677583125
 21
0.21871092544354717
  0
LINE
  8
0
 62
50
  6
CONTINUOUS
 10
17.774816677313392
 20
0.21871092623223631
 11
17.750597774636848
 21
0.21772234873199089
  0
LINE
  8
0
 62
50
  6
CONTINUOUS
 10
17.75059785654301
 20
0.21772234873199089
 11
17.619526977795566
 21
0.19232577468131115
  0
LINE
  8
0
 62
50
  6
CONTINUOUS
 10
17.619526977793139
 20
0.19232577469528295
 11
17.450063977449553
 21
0.18184214492481229
  0
LINE
  8
0
 62
50
  6
CONTINUOUS
 10
17.450063977449553
 20
0.18184214493269246
 11
13.867509460335556
 21
0.18184214493269246
  0
LINE
  8
0
 62
50
  6
CONTINUOUS
 10
13.867509460335556
 20
0.18184214492479459
 11
13.69804645999197
 21
0.19232577469526524
  0
LINE
  8
0
 62
50
  6
CONTINUOUS
 10
13.698046460113732
 20
0.19232577539633408
 11
13.566975569980727
 21
0.21772235253493957
  0
LINE
  8
0
 62
50
  6
CONTINUOUS
 10
13.566975569980727
 20
0.21772235253493957
 11
13.542756758199607
 21
0.21871091958895836
  0
LINE
  8
0
 62
50
  6
CONTINUOUS
 10
13.542756760202018
 20
0.21871092544358259
 11
13.39794971194801
 21
0.22910480228381852
  0
LINE
  8
0
 62
50
  6
CONTINUOUS
 10
13.397949714714319
 20
0.2291048078164363
 11
13.356585080149335
 21
0.23364485981178229
  0
LINE
  8
0
 62
50
  6
CONTINUOUS
 10
13.356585026975008
 20
0.23364485981178229
 11
12.932930020856007
 21
0.23364485981178229
  0
ENDBLK
  0
BLOCK
  8
0
 62
5
  6
DASHDOT
  2
TELL_6
 70
0
 10
19.55286771566335
 20
6.6199376948073434
  0
LINE
  8
0
 62
50
  6
CONTINUOUS
 10
19.591808525724222
 20
7.4727414329801745
 11
20.11879365700787
 21
7.4727414329801745
  0
ARC
  8
0
 62
50
  6
CONTINUOUS
 10
19.749518806097182
 20
7.2595404984019263
 40
0.42640186915650269
 50
317.88538956950413
 51
30
  0
ARC
  8
0
 62
50
  6
CONTINUOUS
 10
19.552867715755593
 20
6.6199376946671649
 40
0.62305295949808615
 50
325.41628176499029
 51
34.583718235009712
  0
ARC
  8
0
 62
50
  6
CONTINUOUS
 10
19.749518806097182
 20
5.9803348909324043
 40
0.42640186915650269
 50
330
 51
42.114610430495873
  0
LINE
  8
0
 62
50
  6
CONTINUOUS
 10
20.11879365700787
 20
5.7671339563541562
 11
19.591808525724222
 21
5.7671339563541562
  0
LINE
  8
0
 62
50
  6
CONTINUOUS
 10
20.06582578408997
 20
6.9735886673365259
 11
19.591808525724222
 21
6.9735886673332503
  0
LINE
  8
0
 62
50
  6
CONTINUOUS
 10
20.06582578408997
 20
6.2662867219978047
 11
19.591808525724222
 21
6.2662867220010803
  0
LINE
  8
0
 62
50
  6
CONTINUOUS
 10
20.175920675253678
 20
7.2595404984019263
 11
20.175920675253678
 21
5.9803348909324043
  0
LINE
  8
0
 62
5
  6
CONTINUOUS
 10
19.552867715755593
 20
7.0872274142907301
 11
16.521208837267807
 21
7.0872274142907212
  0
LINE
  8
0
 62
5
  6
CONTINUOUS
 10
16.521208837267807
 20
7.0872274142907212
 11
16.43760291826516
 21
7.0036214952880744
  0
LINE
  8
0
 62
5
  6
CONTINUOUS
 10
16.43760291826516
 20
7.0036214952880744
 11
16.43760291826516
 21
6.2362538940462384
  0
LINE
  8
0
 62
5
  6
CONTINUOUS
 10
16.43760291826516
 20
6.2362538940462384
 11
16.521208837267807
 21
6.1526479750435943
  0
LINE
  8
0
 62
5
  6
CONTINUOUS
 10
16.521208837267807
 20
6.1526479750435943
 11
19.552867715755593
 21
6.1526479750436005
  0
LINE
  8
0
 62
5
  6
CONTINUOUS
 10
16.521208837267807
 20
7.0872274142907212
 11
16.521208837267807
 21
6.1526479750435943
  0
LINE
  8
0
 62
50
  6
CONTINUOUS
 10
19.591808525724222
 20
5.7671339563541562
 11
19.591808525724222
 21
7.4727414329801745
  0
LINE
  8
0
 62
50
  6
CONTINUOUS
 10
19.591808525724222
 20
7.3598130840711429
 11
19.552867715755593
 21
7.3598130840711429
  0
LINE
  8
0
 62
50
  6
CONTINUOUS
 10
19.552867715755593
 20
5.8800623052631877
 11
19.591808525724222
 21
5.8800623052631877
  0
LINE
  8
0
 62
5
  6
CONTINUOUS
 10
16.43760291826516
 20
7.0036214952880744
 11
19.552867715755593
 21
7.0036214952880833
  0
LINE
  8
0
 62
5
  6
CONTINUOUS
 10
16.43760291826516
 20
6.2362538940462384
 11
19.552867715755593
 21
6.2362538940462473
  0
LINE
  8
0
 62
5
  6
DASHDOT
 10
16.281839678390639
 20
6.6199376946671569
 11
20.331683915128199
 21
6.6199376946671649
  0
ENDBLK
  0
BLOCK
  8
249
 62
5
  6
DASHDOT
  2
TELL_7
 70
0
 10
15.658786718892554
 20
2.3364485981178587
  0
CIRCLE
  8
249
 62
50
  6
CONTINUOUS
 10
15.658786718892554
 20
2.3364485981178587
 40
0.38368380062091517
  0
ARC
  8
249
 62
5
  6
CONTINUOUS
 10
15.658786718892554
 20
2.3364485981178587
 40
0.46728971962356458
 50
175.00000000000003
 51
90
  0
LINE
  8
249
 62
5
  6
DASHDOT
 10
15.658786718892554
 20
2.9595015576159445
 11
15.658786718892554
 21
1.7133956386197724
  0
LINE
  8
249
 62
5
  6
DASHDOT
 10
15.035733759394468
 20
2.3364485981178587
 11
16.281839678390639
 21
2.3364485981178587
  0
ENDBLK
  0
BLOCK
  8
0
 62
5
  6
DASHDOT
  2
TELL_8
 70
0
 10
15.658786718892554
 20
6.6199376946672182
  0
CIRCLE
  8
0
 62
50
  6
CONTINUOUS
 10
15.658786718892554
 20
6.6199376946672182
 40
0.38368380062091517
  0
ARC
  8
0
 62
5
  6
CONTINUOUS
 10
15.658786718892554
 20
6.6199376946672182
 40
0.46728971962356458
 50
175.00000000000003
 51
90
  0
LINE
  8
0
 62
5
  6
DASHDOT
 10
15.658786718892554
 20
7.2429906541653049
 11
15.658786718892554
 21
5.9968847351691323
  0
LINE
  8
0
 62
5
  6
DASHDOT
 10
15.035733759394468
 20
6.6199376946672182
 11
16.281839678390639
 21
6.6199376946672182
  0
ENDBLK
  0
BLOCK
  8
0
 62
50
  6
CONTINUOUS
  2
3_51_CSE
 70
0
 10
15.658786718837986
 20
1.4017835006230308e-010
  0
INSERT
  8
0
 62
140
  6
CONTINUOUS
  2
TELL_5
 10
15.658786718800311
 20
0.40244755228152956
 41
1.0
 42
1.0
 50
0.0
  0
LINE
  8
0
 62
50
  6
CONTINUOUS
 10
12.932930020996185
 20
0.23364485995196066
 11
13.322338120682488
 21
0.62305295963826446
  0
LINE
  8
0
 62
50
  6
CONTINUOUS
 10
17.995235316918134
 20
0.62305295963826446
 11
18.38464341660444
 21
0.23364485995196066
  0
LINE
  8
0
 62
50
  6
CONTINUOUS
 10
17.995235317010376
 20
8.800623052910467
 11
17.995235317010376
 21
8.1775700934123812
  0
LINE
  8
0
 62
50
  6
CONTINUOUS
 10
17.995235317010376
 20
5.0623052959219503
 11
17.995235317010376
 21
0.62305295949808615
  0
LINE
  8
0
 62
50
  6
CONTINUOUS
 10
13.322338120774731
 20
0.62305295949808615
 11
13.322338120774731
 21
8.800623052910467
  0
LINE
  8
0
 62
50
  6
CONTINUOUS
 10
13.322338120774731
 20
8.800623052910467
 11
17.995235317010376
 21
8.800623052910467
  0
LINE
  8
0
 62
5
  6
CONTINUOUS
 10
17.45006397735731
 20
8.8006230530506446
 11
17.45006397735731
 21
0.62305295963826446
  0
LINE
  8
0
 62
5
  6
CONTINUOUS
 10
13.867509460243314
 20
0.62305295963826446
 11
13.867509460243314
 21
8.8006230530506446
  0
LINE
  8
0
 62
50
  6
CONTINUOUS
 10
17.960988357635987
 20
0.23364485981178229
 11
17.919623723070806
 21
0.22910480781640088
  0
LINE
  8
0
 62
50
  6
CONTINUOUS
 10
13.397949714714319
 20
0.2291048078164363
 11
13.356585080149335
 21
0.23364485981178229
  0
LINE
  8
0
 62
50
  6
CONTINUOUS
 10
17.761590457198594
 20
8.1775700934123812
 11
19.552867715755593
 21
8.1775700934123812
  0
LINE
  8
0
 62
50
  6
CONTINUOUS
 10
19.552867715755593
 20
8.1775700934123812
 11
19.552867715755593
 21
5.0623052959219503
  0
LINE
  8
0
 62
50
  6
CONTINUOUS
 10
17.919623725837152
 20
0.22910480228371227
 11
17.774816677583125
 21
0.21871092544354717
  0
LINE
  8
0
 62
50
  6
CONTINUOUS
 10
13.542756760202018
 20
0.21871092544358259
 11
13.39794971194801
 21
0.22910480228381852
  0
LINE
  8
0
 62
50
  6
CONTINUOUS
 10
17.75059785654301
 20
0.21772234873199089
 11
17.619526977795566
 21
0.19232577468131115
  0
LINE
  8
0
 62
50
  6
CONTINUOUS
 10
17.774816677313392
 20
0.21871092623223631
 11
17.750597774636848
 21
0.21772234873199089
  0
LINE
  8
0
 62
50
  6
CONTINUOUS
 10
13.698046460113732
 20
0.19232577539633408
 11
13.566975569980727
 21
0.21772235253493957
  0
LINE
  8
0
 62
50
  6
CONTINUOUS
 10
13.566975569980727
 20
0.21772235253493957
 11
13.542756758199607
 21
0.21871091958895836
  0
LINE
  8
0
 62
50
  6
CONTINUOUS
 10
17.619526977793139
 20
0.19232577469528295
 11
17.450063977449553
 21
0.18184214492481229
  0
LINE
  8
0
 62
50
  6
CONTINUOUS
 10
13.867509460335556
 20
0.18184214492479459
 11
13.69804645999197
 21
0.19232577469526524
  0
LINE
  8
0
 62
50
  6
CONTINUOUS
 10
17.450063977449553
 20
0.18184214493269246
 11
13.867509460335556
 21
0.18184214493269246
  0
LINE
  8
0
 62
50
  6
CONTINUOUS
 10
9.8176652235979969
 20
0.23364485981178229
 11
12.932930020856007
 21
0.23364485981178229
  0
LINE
  8
0
 62
50
  6
CONTINUOUS
 10
12.932930020856007
 20
0.23364485981178229
 11
13.356585026975008
 21
0.23364485981178229
  0
LINE
  8
0
 62
50
  6
CONTINUOUS
 10
9.8176652235979969
 20
-1.2461059189961723
 11
9.8176652235979969
 21
0.23364485981178229
  0
LINE
  8
0
 62
50
  6
CONTINUOUS
 10
17.960988410811108
 20
0.23364485981178229
 11
18.384643416744616
 21
0.23364485981178229
  0
LINE
  8
0
 62
50
  6
CONTINUOUS
 10
18.384643416744616
 20
0.23364485981178229
 11
21.499908214187112
 21
0.23364485981178229
  0
LINE
  8
0
 62
50
  6
CONTINUOUS
 10
21.499908214187112
 20
-1.2461059189961723
 11
21.499908214187112
 21
0.23364485981178229
  0
LINE
  8
0
 62
5
  6
CONTINUOUS
 10
9.8176652235057542
 20
-0.23364485967160395
 11
21.499908214094869
 21
-0.23364485967160395
  0
LINE
  8
0
 62
50
  6
CONTINUOUS
 10
21.499908214187112
 20
-1.2461059189961723
 11
21.185153394537195
 21
-1.7912772585569976
  0
LINE
  8
0
 62
50
  6
CONTINUOUS
 10
21.185153394537195
 20
-1.7912772585569976
 11
10.132420043247913
 21
-1.7912772585569976
  0
LINE
  8
0
 62
50
  6
CONTINUOUS
 10
10.132420043247913
 20
-1.7912772585569976
 11
9.8176652235979969
 21
-1.2461059189961723
  0
LINE
  8
0
 62
5
  6
CONTINUOUS
 10
18.774051516290744
 20
8.0218068535378588
 11
18.774051516290744
 21
5.2180685357964718
  0
LINE
  8
0
 62
50
  6
CONTINUOUS
 10
17.761590457198594
 20
5.0623052959219503
 11
19.552867715755593
 21
5.0623052959219503
  0
LINE
  8
0
 62
50
  6
CONTINUOUS
 10
17.761590457198594
 20
5.0623052959219503
 11
17.761590457198594
 21
8.1775700934123812
  0
LINE
  8
0
 62
50
  6
CONTINUOUS
 10
13.322338120774731
 20
0.62305295949808615
 11
17.995235317010376
 21
0.62305295949808615
  0
INSERT
  8
0
 62
5
  6
DASHDOT
  2
TELL_6
 10
19.55286771566335
 20
6.6199376948073434
 41
1.0
 42
1.0
 50
0.0
  0
LINE
  8
0
 62
5
  6
DASHDOT
 10
10.985889522656908
 20
-0.5356893316057536
 11
10.985889522656908
 21
0.56449916694169788
  0
LINE
  8
0
 62
5
  6
DASHDOT
 10
20.331683915128199
 20
-0.5356893316057536
 11
20.331683915128199
 21
0.56449916694169788
  0
INSERT
  8
249
 62
5
  6
DASHDOT
  2
TELL_7
 10
15.658786718892554
 20
2.3364485981178587
 41
1.0
 42
1.0
 50
0.0
  0
INSERT
  8
0
 62
5
  6
DASHDOT
  2
TELL_8
 10
15.658786718892554
 20
6.6199376946672182
 41
1.0
 42
1.0
 50
0.0
  0
ENDBLK
  0
BLOCK
  8
0
 62
5
  6
DASHDOT
  2
TELL_10
 70
0
 10
4.0197682496349236e-011
 20
-14.018691588551174
  0
LINE
  8
0
 62
50
  6
CONTINUOUS
 10
0.8528037383129381
 20
-14.057632398675569
 11
0.85280373831293899
 21
-14.584617529959216
  0
ARC
  8
0
 62
50
  6
CONTINUOUS
 10
0.63960280373469058
 20
-14.215342679048529
 40
0.42640186915650269
 50
227.88538956950413
 51
300
  0
ARC
  8
0
 62
50
  6
CONTINUOUS
 10
-7.0832920698197996e-014
 20
-14.018691588706938
 40
0.62305295949808615
 50
235.41628176499029
 51
304.58371823500971
  0
ARC
  8
0
 62
50
  6
CONTINUOUS
 10
-0.63960280373483169
 20
-14.215342679048529
 40
0.42640186915650269
 50
240
 51
312.11461043049587
  0
LINE
  8
0
 62
50
  6
CONTINUOUS
 10
-0.85280373831307899
 20
-14.584617529959216
 11
-0.85280373831307976
 21
-14.057632398675569
  0
LINE
  8
0
 62
50
  6
CONTINUOUS
 10
0.35365097266929102
 20
-14.531649657041315
 11
0.35365097266601414
 21
-14.057632398675569
  0
LINE
  8
0
 62
50
  6
CONTINUOUS
 10
-0.35365097266943102
 20
-14.531649657041315
 11
-0.35365097266615581
 21
-14.057632398675569
  0
LINE
  8
0
 62
50
  6
CONTINUOUS
 10
0.63960280373469114
 20
-14.641744548205024
 11
-0.63960280373483114
 21
-14.641744548205024
  0
LINE
  8
0
 62
5
  6
CONTINUOUS
 10
0.46728971962349375
 20
-14.018691588706938
 11
0.46728971962348909
 21
-10.987032710219154
  0
LINE
  8
0
 62
5
  6
CONTINUOUS
 10
0.46728971962348909
 20
-10.987032710219154
 11
0.38368380062084217
 21
-10.903426791216507
  0
LINE
  8
0
 62
5
  6
CONTINUOUS
 10
0.38368380062084217
 20
-10.903426791216507
 11
-0.38368380062099328
 21
-10.903426791216507
  0
LINE
  8
0
 62
5
  6
CONTINUOUS
 10
-0.38368380062099328
 20
-10.903426791216507
 11
-0.46728971962364013
 21
-10.987032710219154
  0
LINE
  8
0
 62
5
  6
CONTINUOUS
 10
-0.46728971962364013
 20
-10.987032710219154
 11
-0.46728971962363547
 21
-14.018691588706938
  0
LINE
  8
0
 62
5
  6
CONTINUOUS
 10
0.46728971962348909
 20
-10.987032710219154
 11
-0.46728971962364013
 21
-10.987032710219154
  0
LINE
  8
0
 62
50
  6
CONTINUOUS
 10
-0.85280373831307976
 20
-14.057632398675569
 11
0.8528037383129381
 21
-14.057632398675569
  0
LINE
  8
0
 62
50
  6
CONTINUOUS
 10
0.73987538940390651
 20
-14.057632398675569
 11
0.73987538940390651
 21
-14.018691588706938
  0
LINE
  8
0
 62
50
  6
CONTINUOUS
 10
-0.73987538940404818
 20
-14.018691588706938
 11
-0.73987538940404818
 21
-14.057632398675569
  0
LINE
  8
0
 62
5
  6
CONTINUOUS
 10
0.38368380062084217
 20
-10.903426791216507
 11
0.38368380062084689
 21
-14.018691588706938
  0
LINE
  8
0
 62
5
  6
CONTINUOUS
 10
-0.38368380062099328
 20
-10.903426791216507
 11
-0.38368380062098856
 21
-14.018691588706938
  0
ENDBLK
  0
BLOCK
  8
0
 62
5
  6
DASHDOT
  2
TELL_9
 70
0
 10
4.0197682496349236e-011
 20
-10.124610591688135
  0
LINE
  8
0
 62
50
  6
CONTINUOUS
 10
3.0373831775530813
 20
-4.2834890965484567
 11
3.0373831775530991
 21
-12.227414330149054
  0
LINE
  8
0
 62
50
  6
CONTINUOUS
 10
3.0373831775530991
 20
-13.702426843037356
 11
3.0373831775530991
 21
-15.965732087137573
  0
LINE
  8
0
 62
50
  6
CONTINUOUS
 10
-3.0373831775532407
 20
-15.965732087137573
 11
-3.0373831775532407
 21
-13.702426843037374
  0
LINE
  8
0
 62
50
  6
CONTINUOUS
 10
-3.0373831775532407
 20
-12.227414330149054
 11
-3.0373831775532585
 21
-4.2834890965484567
  0
LINE
  8
0
 62
50
  6
CONTINUOUS
 10
-3.0373831775532585
 20
-4.2834890965484567
 11
3.0373831775530813
 21
-4.2834890965484567
  0
LINE
  8
0
 62
50
  6
CONTINUOUS
 10
-3.0373831775532407
 20
-15.965732087137573
 11
3.0373831775530991
 21
-15.965732087137573
  0
LINE
  8
0
 62
5
  6
CONTINUOUS
 10
-2.5700934578894077
 20
-15.96573208699828
 11
-2.5700934578894077
 21
-14.002566935918876
  0
LINE
  8
0
 62
5
  6
CONTINUOUS
 10
-2.5700934578894077
 20
-13.59677380819528
 11
-2.5700934578894077
 21
-4.2834890964091636
  0
LINE
  8
0
 62
5
  6
CONTINUOUS
 10
2.5700934579698029
 20
-14.002566935918876
 11
2.5700934579698029
 21
-15.96573208699828
  0
LINE
  8
0
 62
50
  6
CONTINUOUS
 10
2.4143302180563411
 20
-14.018691588706938
 11
-2.4143302180538266
 21
-14.018691588706053
  0
LINE
  8
0
 62
50
  6
CONTINUOUS
 10
-3.1931464174264343
 20
-13.23987538933433
 11
-3.1931464174277622
 21
-12.227414330149054
  0
LINE
  8
0
 62
50
  6
CONTINUOUS
 10
-3.1931464174277622
 20
-12.227414330149054
 11
-2.8037383177414585
 21
-12.227414330149054
  0
LINE
  8
0
 62
50
  6
CONTINUOUS
 10
-2.8037383177414585
 20
-12.227414330149054
 11
-2.8037383177401303
 21
-13.23987538933433
  0
LINE
  8
0
 62
50
  6
CONTINUOUS
 10
-2.4143302180538266
 20
-13.629283489020635
 11
2.4143302180563411
 21
-13.629283489020635
  0
LINE
  8
0
 62
50
  6
CONTINUOUS
 10
2.8037383177426451
 20
-13.23987538933433
 11
2.8037383177413169
 21
-12.227414330149054
  0
LINE
  8
0
 62
50
  6
CONTINUOUS
 10
2.8037383177413169
 20
-12.227414330149054
 11
3.1931464174276205
 21
-12.227414330149054
  0
LINE
  8
0
 62
50
  6
CONTINUOUS
 10
3.1931464174276205
 20
-12.227414330149054
 11
3.1931464174289488
 21
-13.23987538933433
  0
LINE
  8
0
 62
50
  6
CONTINUOUS
 10
2.3364485981190803
 20
-8.3333333332869017
 11
2.3364485981177521
 21
-11.915887850400898
  0
LINE
  8
0
 62
50
  6
CONTINUOUS
 10
1.791277258558255
 20
-12.461059189961723
 11
-1.7912772585557404
 21
-12.461059189960837
  0
LINE
  8
0
 62
50
  6
CONTINUOUS
 10
-2.3364485981165659
 20
-11.915887850400898
 11
-2.3364485981165659
 21
-8.3333333332869017
  0
LINE
  8
0
 62
50
  6
CONTINUOUS
 10
-1.7912772585557404
 20
-7.7881619937260771
 11
1.791277258558255
 21
-7.7881619937260771
  0
LINE
  8
0
 62
50
  6
CONTINUOUS
 10
-2.0249221183675226
 20
-8.3333333332869017
 11
-2.0249221183675226
 21
-11.915887850400898
  0
LINE
  8
0
 62
50
  6
CONTINUOUS
 10
-1.7912772585557404
 20
-12.14953271021268
 11
1.791277258558255
 21
-12.14953271021268
  0
LINE
  8
0
 62
50
  6
CONTINUOUS
 10
2.0249221183700374
 20
-11.915887850400898
 11
2.0249221183700374
 21
-8.3333333332869017
  0
LINE
  8
0
 62
50
  6
CONTINUOUS
 10
1.791277258558255
 20
-8.0996884734751191
 11
-1.7912772585557404
 21
-8.0996884734742345
  0
ARC
  8
0
 62
50
  6
CONTINUOUS
 10
-7.0832920698431524e-014
 20
-14.797507788078661
 40
0.56464174454513916
 50
180.00000000008984
 51
359.99999999991013
  0
ARC
  8
0
 62
50
  6
CONTINUOUS
 10
-1.7912772585570684
 20
-8.3333333332860171
 40
0.23364485981178229
 50
90
 51
180.00000000021711
  0
ARC
  8
0
 62
50
  6
CONTINUOUS
 10
-1.7912772585557226
 20
-11.915887850400011
 40
0.23364485981178229
 50
180.00000000021711
 51
270
  0
ARC
  8
0
 62
50
  6
CONTINUOUS
 10
1.7912772585569268
 20
-11.915887850400898
 40
0.23364485981178229
 50
270
 51
0
  0
ARC
  8
0
 62
50
  6
CONTINUOUS
 10
1.7912772585582373
 20
-8.3333333332860171
 40
0.23364485981178229
 50
359.99999999978286
 51
90
  0
ARC
  8
0
 62
50
  6
CONTINUOUS
 10
-1.7912772585570684
 20
-11.915887850400011
 40
0.54517133956082542
 50
180.00000000009305
 51
270
  0
ARC
  8
0
 62
50
  6
CONTINUOUS
 10
1.7912772585569268
 20
-11.915887850400011
 40
0.54517133956082542
 50
270
 51
359.99999999990695
  0
ARC
  8
0
 62
50
  6
CONTINUOUS
 10
-1.7912772585557226
 20
-8.3333333332860171
 40
0.54517133956082542
 50
90
 51
180.00000000009305
  0
ARC
  8
0
 62
50
  6
CONTINUOUS
 10
1.7912772585569268
 20
-8.3333333332869017
 40
0.54517133956082542
 50
0
 51
90
  0
ARC
  8
0
 62
50
  6
CONTINUOUS
 10
-2.4143302180551545
 20
-13.239875389333445
 40
0.38940809968630385
 50
180.00000000013029
 51
270
  0
ARC
  8
0
 62
50
  6
CONTINUOUS
 10
2.4143302180550128
 20
-13.23987538933433
 40
0.38940809968630385
 50
270
 51
0
  0
ARC
  8
0
 62
50
  6
CONTINUOUS
 10
-2.4143302180551545
 20
-13.239875389333445
 40
0.77881619937260771
 50
180.00000000006514
 51
270
  0
ARC
  8
0
 62
50
  6
CONTINUOUS
 10
2.4143302180550128
 20
-13.239875389333445
 40
0.77881619937260771
 50
270
 51
359.99999999993486
  0
INSERT
  8
0
 62
5
  6
DASHDOT
  2
TELL_10
 10
4.0197682496349236e-011
 20
-14.018691588551174
 41
1.0
 42
1.0
 50
0.0
  0
LINE
  8
0
 62
5
  6
DASHDOT
 10
0.67757009345410135
 20
-14.797507788078661
 11
-0.67757009345424302
 21
-14.797507788078661
  0
LINE
  8
0
 62
5
  6
CONTINUOUS
 10
2.570093457889266
 20
-13.596773808334573
 11
2.570093457889266
 21
-4.2834890965484567
  0
LINE
  8
0
 62
5
  6
DASHDOT
 10
0.67757009345410135
 20
-5.451713395607368
 11
-0.67757009345424302
 21
-5.451713395607368
  0
LINE
  8
0
 62
5
  6
DASHDOT
 10
-7.0832920698431524e-014
 20
-16.199376946949354
 11
-7.0832920698431524e-014
 21
-4.0498442367366749
  0
CIRCLE
  8
0
 62
50
  6
CONTINUOUS
 10
-7.0832920698431524e-014
 20
-5.451713395607368
 40
0.56464174454513916
  0
ENDBLK
  0
ENDSEC
  0
SECTION
  2
ENTITIES
  0
INSERT
  8
0
 62
5
  6
DASHDOT
  2
TELL_1
 10
4.0197682496349236e-011
 20
1.4017835006230308e-010
 41
1.0
 42
1.0
 50
0.0
  0
INSERT
  8
0
 62
50
  6
CONTINUOUS
  2
3_51_CSE
 10
15.658786718837986
 20
1.4017835006230308e-010
 41
1.0
 42
1.0
 50
0.0
  0
INSERT
  8
0
 62
5
  6
DASHDOT
  2
TELL_9
 10
4.0197682496349236e-011
 20
-10.124610591688135
 41
1.0
 42
1.0
 50
0.0
  0
ENDSEC
  0
EOF
