  0
SECTION
  2
HEADER
  9
$ACADVER
  1
AC1009
  9
$EXTMIN
 10
-1.9408502772514924
 20
-19.223659888966111
  9
$EXTMAX
 10
19.500924214468309
 20
5.7763401110338854
  9
$TEXTSTYLE
  7
STANDARD
  9
$DIMLFAC
 40
1
  9
$REGENMODE
 70
1
  9
$DRAGMODE
 70
2
  9
$DIMASO
 70
1
  9
$LTSCALE
 40
1.0000000000
  0
ENDSEC
  0
SECTION
  2
TABLES
  0
TABLE
  2
LTYPE
 70
2
  0
LTYPE
  2
CONTINUOUS
 70
64
  3
CONTINUOUS
 72
65
 73
0
 40
0.0000000000
  0
LTYPE
  2
DASHDOT
 70
64
  3
DASHDOT
 72
65
 73
4
 40
1.0000000000
 49
0.5000000000
 49
-0.2500000000
 49
0.0000000000
 49
-0.2500000000
  0
ENDTAB
  0
TABLE
  2
LAYER
 70
2
  0
LAYER
  2
0
 70
0
 62
2
  6
CONTINUOUS
  0
LAYER
  2
249
 70
0
 62
2
  6
CONTINUOUS
  0
ENDTAB
  0
TABLE
  2
STYLE
 70
0
  0
STYLE
  2
Standard
 70
0
 40
0
 41
1
 50
0
 71
0
 42
2.5
  3
txt
  4

  0
ENDTAB
  0
ENDSEC
  0
SECTION
  2
BLOCKS
  0
BLOCK
  8
0
 62
140
  6
CONTINUOUS
  2
TELL_2
 70
0
 10
9.1832066698738839e-012
 20
0.45716499068210253
  0
LINE
  8
0
 62
50
  6
CONTINUOUS
 10
-1.6173752310390017
 20
0.23105360443470147
 11
1.617375231046819
 21
0.23105360443470147
  0
ARC
  8
0
 62
50
  6
CONTINUOUS
 10
1.6173752310429104
 20
-0.092421441773880592
 40
0.32347504620858208
 50
75.799444375301292
 51
90
  0
LINE
  8
0
 62
50
  6
CONTINUOUS
 10
1.6967290900626579
 20
0.22116916806010067
 11
1.2939001848381109
 21
0.6931608133041044
  0
LINE
  8
0
 62
50
  6
CONTINUOUS
 10
1.2939001848343283
 20
0.6931608133041044
 11
-1.2939001848343283
 21
0.6931608133041044
  0
LINE
  8
0
 62
50
  6
CONTINUOUS
 10
-1.2939001848306508
 20
0.6931608133041044
 11
-1.6967290900493979
 21
0.22116916806648901
  0
ARC
  8
0
 62
50
  6
CONTINUOUS
 10
-1.6173752310429104
 20
-0.092421441773880592
 40
0.32347504620858208
 50
90
 51
104.20055562134633
  0
ENDBLK
  0
BLOCK
  8
0
 62
5
  6
DASHDOT
  2
TELL_3
 70
0
 10
0
 20
4.3900184842593282
  0
LINE
  8
0
 62
50
  6
CONTINUOUS
 10
0.45355612643987203
 20
5.1756007393373133
 11
0.90711225287973352
 21
4.3900184842593282
  0
LINE
  8
0
 62
50
  6
CONTINUOUS
 10
0.90711225287973352
 20
4.3900184842593282
 11
0.45355612643987203
 21
3.604436229181343
  0
LINE
  8
0
 62
50
  6
CONTINUOUS
 10
0.45355612643987203
 20
3.604436229181343
 11
-0.45355612643987203
 21
3.604436229181343
  0
LINE
  8
0
 62
50
  6
CONTINUOUS
 10
-0.45355612643987203
 20
3.604436229181343
 11
-0.90711225287973352
 21
4.3900184842593282
  0
LINE
  8
0
 62
50
  6
CONTINUOUS
 10
-0.90711225287973352
 20
4.3900184842593282
 11
-0.45355612643987203
 21
5.1756007393373133
  0
LINE
  8
0
 62
50
  6
CONTINUOUS
 10
-0.45355612643987203
 20
5.1756007393373133
 11
0.45355612643987203
 21
5.1756007393373133
  0
CIRCLE
  8
0
 62
50
  6
CONTINUOUS
 10
0
 20
4.3900184842593282
 40
0.78558225507798507
  0
LINE
  8
0
 62
5
  6
DASHDOT
 10
-1.0457444155405544
 20
4.3900184842593282
 11
1.0457444155405544
 21
4.3900184842593282
  0
LINE
  8
0
 62
5
  6
DASHDOT
 10
0
 20
3.4658040665205223
 11
0
 21
5.3142329019981336
  0
ENDBLK
  0
BLOCK
  8
0
 62
5
  6
DASHDOT
  2
TELL_1
 70
0
 10
-5.337607538096033e-012
 20
1.6634843020302441e-010
  0
INSERT
  8
0
 62
140
  6
CONTINUOUS
  2
TELL_2
 10
9.1832066698738839e-012
 20
0.45716499068210253
 41
1.0
 42
1.0
 50
0.0
  0
LINE
  8
0
 62
50
  6
CONTINUOUS
 10
-1.2939001848343283
 20
0.6931608133041044
 11
-1.2939001848343283
 21
3.0961182994249996
  0
LINE
  8
0
 62
5
  6
CONTINUOUS
 10
-1.3401109057266063
 20
3.1885397413652288
 11
-1.3401109057266063
 21
5.5914972274861245
  0
LINE
  8
0
 62
50
  6
CONTINUOUS
 10
-1.2939001848343283
 20
5.6839186690936563
 11
-1.2939001848343283
 21
5.7763401108675367
  0
LINE
  8
0
 62
50
  6
CONTINUOUS
 10
-1.2939001848343283
 20
5.7763401108675367
 11
1.2939001848343283
 21
5.7763401108675367
  0
LINE
  8
0
 62
50
  6
CONTINUOUS
 10
1.2939001848343283
 20
0.6931608133041044
 11
1.2939001848343283
 21
3.0961182994249996
  0
LINE
  8
0
 62
5
  6
CONTINUOUS
 10
1.3401109057159311
 20
3.1885397413652288
 11
1.3401109057159311
 21
5.5914972274861245
  0
LINE
  8
0
 62
50
  6
CONTINUOUS
 10
1.2939001848343283
 20
5.6839186690936563
 11
1.2939001848343283
 21
5.7763401108675367
  0
LINE
  8
0
 62
5
  6
CONTINUOUS
 10
-1.016635859518024
 20
0.69316081347045289
 11
-1.016635859518024
 21
3.0961182995913483
  0
LINE
  8
0
 62
5
  6
CONTINUOUS
 10
1.0166358595073488
 20
3.0961182995913483
 11
1.0166358595073488
 21
0.69316081347045289
  0
LINE
  8
0
 62
50
  6
CONTINUOUS
 10
-1.8946395563645522
 20
3.0961182994249996
 11
-1.8946395563645522
 21
5.6839186690936563
  0
LINE
  8
0
 62
50
  6
CONTINUOUS
 10
1.8946395563645522
 20
5.6839186690936563
 11
1.8946395563645522
 21
3.0961182994249996
  0
LINE
  8
0
 62
50
  6
CONTINUOUS
 10
-1.8946395563645522
 20
5.6839186690936563
 11
1.8946395563645522
 21
5.6839186690936563
  0
LINE
  8
0
 62
50
  6
CONTINUOUS
 10
-1.8946395563645522
 20
3.0961182994249996
 11
1.8946395563645522
 21
3.0961182994249996
  0
LINE
  8
0
 62
50
  6
CONTINUOUS
 10
-1.709796672816791
 20
-1.6173752310429104
 11
-1.9408502772514924
 21
-1.6173752310429104
  0
LINE
  8
0
 62
50
  6
CONTINUOUS
 10
1.9408502772514924
 20
-1.6173752310429104
 11
1.940850277255401
 21
-0.092421441773880592
  0
LINE
  8
0
 62
50
  6
CONTINUOUS
 10
1.9408502772514924
 20
-1.6173752310429104
 11
1.709796672816791
 21
-1.6173752310429104
  0
LINE
  8
0
 62
50
  6
CONTINUOUS
 10
1.709796672816791
 20
-1.6173752310429104
 11
1.7097966728206997
 21
-0.092421441773880592
  0
LINE
  8
0
 62
50
  6
CONTINUOUS
 10
-1.6173752310390017
 20
0.23105360443470147
 11
1.617375231046819
 21
0.23105360443470147
  0
LINE
  8
0
 62
50
  6
CONTINUOUS
 10
1.9408502772514924
 20
-0.32347504620858208
 11
1.709796672816791
 21
-0.32347504620858208
  0
LINE
  8
0
 62
50
  6
CONTINUOUS
 10
1.617375231046819
 20
0
 11
-1.6173752310390017
 21
0
  0
LINE
  8
0
 62
50
  6
CONTINUOUS
 10
-1.709796672816791
 20
-1.6173752310429104
 11
-1.7097966728128824
 21
-0.092421441773880592
  0
LINE
  8
0
 62
50
  6
CONTINUOUS
 10
-1.709796672816791
 20
-0.32347504620858208
 11
-1.9408502772514924
 21
-0.32347504620858208
  0
LINE
  8
0
 62
50
  6
CONTINUOUS
 10
-1.9408502772514924
 20
-1.6173752310429104
 11
-1.9408502772475837
 21
-0.092421441773880592
  0
INSERT
  8
0
 62
5
  6
DASHDOT
  2
TELL_3
 10
0
 20
4.3900184842593282
 41
1.0
 42
1.0
 50
0.0
  0
ARC
  8
0
 62
50
  6
CONTINUOUS
 10
-1.6173752310429208
 20
-0.092421441773880592
 40
0.092421441773880592
 50
90
 51
180
  0
ARC
  8
0
 62
50
  6
CONTINUOUS
 10
1.6173752310429208
 20
-0.092421441773880592
 40
0.092421441773880592
 50
0
 51
90
  0
ARC
  8
0
 62
50
  6
CONTINUOUS
 10
-1.6173752310429104
 20
-0.092421441773880592
 40
0.32347504620858208
 50
104.20055562134633
 51
180
  0
ARC
  8
0
 62
50
  6
CONTINUOUS
 10
-1.6173752310429104
 20
-0.092421441773880592
 40
0.32347504620858208
 50
90
 51
104.20055562134633
  0
ARC
  8
0
 62
50
  6
CONTINUOUS
 10
1.6173752310429104
 20
-0.092421441773880592
 40
0.32347504620858208
 50
75.799444375301292
 51
90
  0
ARC
  8
0
 62
50
  6
CONTINUOUS
 10
1.6173752310429104
 20
-0.092421441773880592
 40
0.32347504620858208
 50
0
 51
75.799444375301292
  0
LINE
  8
0
 62
50
  6
CONTINUOUS
 10
-1.2939001848343283
 20
0.6931608133041044
 11
1.2939001848343283
 21
0.6931608133041044
  0
LINE
  8
0
 62
50
  6
CONTINUOUS
 10
-1.6967290900493979
 20
0.22116916806648901
 11
-1.2939001848306508
 21
0.6931608133041044
  0
LINE
  8
0
 62
50
  6
CONTINUOUS
 10
1.6967290900626579
 20
0.22116916806010067
 11
1.2939001848381109
 21
0.6931608133041044
  0
LINE
  8
0
 62
5
  6
DASHDOT
 10
0
 20
-0.39373324133266785
 11
0
 21
1.2748674348853968
  0
ENDBLK
  0
BLOCK
  8
0
 62
140
  6
CONTINUOUS
  2
TELL_4
 70
0
 10
14.383887748840822
 20
0.46210720887234497
  0
LINE
  8
0
 62
50
  6
CONTINUOUS
 10
12.892791127456343
 20
0.23105360443470147
 11
15.874984370225279
 21
0.23105360443470147
  0
LINE
  8
0
 62
50
  6
CONTINUOUS
 10
15.874984370225279
 20
0.23105360443470147
 11
15.480591497124999
 21
0.69316081330998847
  0
LINE
  8
0
 62
50
  6
CONTINUOUS
 10
15.480591497124999
 20
0.6931608133041044
 11
12.892791127456343
 21
0.6931608133041044
  0
LINE
  8
0
 62
50
  6
CONTINUOUS
 10
12.892791127456343
 20
0.6931608133041044
 11
12.892791127456343
 21
0.23105360443470147
  0
ENDBLK
  0
BLOCK
  8
0
 62
5
  6
DASHDOT
  2
TELL_5
 70
0
 10
16.035120147953126
 20
4.3900184844256867
  0
LINE
  8
0
 62
50
  6
CONTINUOUS
 10
16.081330868655222
 20
5.2957486136433323
 11
16.621397826003196
 21
5.2957486136433323
  0
ARC
  8
0
 62
50
  6
CONTINUOUS
 10
16.229205175493423
 20
5.0693160812973206
 40
0.45286506469201493
 50
317.54026094004342
 51
30
  0
ARC
  8
0
 62
50
  6
CONTINUOUS
 10
16.035120147768282
 20
4.3900184842593069
 40
0.64695009241716417
 50
324.72863805591317
 51
35.271361944086834
  0
ARC
  8
0
 62
50
  6
CONTINUOUS
 10
16.229205175493423
 20
3.7107208872212927
 40
0.45286506469201493
 50
330
 51
42.459739059956519
  0
LINE
  8
0
 62
50
  6
CONTINUOUS
 10
16.621397826003196
 20
3.4842883548752814
 11
16.081330868655222
 21
3.484288354875281
  0
LINE
  8
0
 62
50
  6
CONTINUOUS
 10
16.56330722949038
 20
4.7635995715488795
 11
16.081330868655222
 21
4.7635995715488786
  0
LINE
  8
0
 62
50
  6
CONTINUOUS
 10
16.56330722949038
 20
4.0164373969697351
 11
16.081330868655222
 21
4.0164373969697342
  0
LINE
  8
0
 62
50
  6
CONTINUOUS
 10
16.682070240185446
 20
5.0693160812973206
 11
16.682070240185446
 21
3.7107208872212931
  0
LINE
  8
0
 62
5
  6
CONTINUOUS
 10
16.035120147768282
 20
4.8521256931287091
 11
14.271719038722647
 21
4.8521256931287056
  0
LINE
  8
0
 62
5
  6
CONTINUOUS
 10
14.271719038722647
 20
4.8521256931287056
 11
14.186691312290671
 21
4.7670979666967286
  0
LINE
  8
0
 62
5
  6
CONTINUOUS
 10
14.186691312290671
 20
4.7670979666967286
 11
14.186691312290671
 21
4.0129390018218762
  0
LINE
  8
0
 62
5
  6
CONTINUOUS
 10
14.186691312290671
 20
4.0129390018218762
 11
14.271719038722647
 21
3.9279112753898997
  0
LINE
  8
0
 62
5
  6
CONTINUOUS
 10
14.271719038722647
 20
3.9279112753898997
 11
16.035120147768282
 21
3.9279112753899033
  0
LINE
  8
0
 62
5
  6
CONTINUOUS
 10
14.271719038722647
 20
4.8521256931287056
 11
14.271719038722647
 21
3.9279112753898997
  0
LINE
  8
0
 62
50
  6
CONTINUOUS
 10
16.081330868655222
 20
3.484288354875281
 11
16.081330868655222
 21
5.2957486136433323
  0
LINE
  8
0
 62
50
  6
CONTINUOUS
 10
16.081330868655222
 20
5.1756007393372911
 11
16.035120147768282
 21
5.1756007393372911
  0
LINE
  8
0
 62
50
  6
CONTINUOUS
 10
16.035120147768282
 20
3.6044362291813212
 11
16.081330868655222
 21
3.6044362291813212
  0
LINE
  8
0
 62
5
  6
CONTINUOUS
 10
14.186691312290671
 20
4.7670979666967286
 11
16.035120147768282
 21
4.7670979666967321
  0
LINE
  8
0
 62
5
  6
CONTINUOUS
 10
14.186691312290671
 20
4.0129390018218762
 11
16.035120147768282
 21
4.0129390018218807
  0
ENDBLK
  0
BLOCK
  8
0
 62
140
  6
CONTINUOUS
  2
TELL_6
 70
0
 10
10.7547444136547
 20
0.46210720887234497
  0
LINE
  8
0
 62
50
  6
CONTINUOUS
 10
12.245841035039179
 20
0.23105360443470607
 11
9.2636477922702429
 21
0.23105360443469689
  0
LINE
  8
0
 62
50
  6
CONTINUOUS
 10
9.2636477922702429
 20
0.23105360443469689
 11
9.6580406653705211
 21
0.69316081330998514
  0
LINE
  8
0
 62
50
  6
CONTINUOUS
 10
9.6580406653705211
 20
0.69316081330410118
 11
12.245841035039179
 21
0.69316081330410906
  0
LINE
  8
0
 62
50
  6
CONTINUOUS
 10
12.245841035039179
 20
0.69316081330410906
 11
12.245841035039179
 21
0.23105360443470607
  0
ENDBLK
  0
BLOCK
  8
0
 62
5
  6
DASHDOT
  2
TELL_7
 70
0
 10
9.1035120145516366
 20
4.3900184844256867
  0
LINE
  8
0
 62
50
  6
CONTINUOUS
 10
9.057301293840295
 20
5.2957486136433332
 11
8.5172343364923222
 21
5.2957486136433305
  0
ARC
  8
0
 62
50
  6
CONTINUOUS
 10
8.9094269870020977
 20
5.0693160812973206
 40
0.45286506469201493
 50
150
 51
222.45973905995652
  0
ARC
  8
0
 62
50
  6
CONTINUOUS
 10
9.1035120147272384
 20
4.3900184842593077
 40
0.64695009241716417
 50
144.72863805591317
 51
215.27136194408683
  0
ARC
  8
0
 62
50
  6
CONTINUOUS
 10
8.9094269870020977
 20
3.7107208872212927
 40
0.45286506469201493
 50
137.54026094004348
 51
210
  0
LINE
  8
0
 62
50
  6
CONTINUOUS
 10
8.5172343364923275
 20
3.4842883548752788
 11
9.0573012938403004
 21
3.4842883548752823
  0
LINE
  8
0
 62
50
  6
CONTINUOUS
 10
8.57532493300514
 20
4.7635995715488768
 11
9.0573012938402986
 21
4.7635995715488795
  0
LINE
  8
0
 62
50
  6
CONTINUOUS
 10
8.57532493300514
 20
4.0164373969697325
 11
9.0573012938402986
 21
4.016437396969736
  0
LINE
  8
0
 62
50
  6
CONTINUOUS
 10
8.4565619223100743
 20
5.0693160812973188
 11
8.4565619223100743
 21
3.7107208872212905
  0
LINE
  8
0
 62
5
  6
CONTINUOUS
 10
9.1035120147272384
 20
4.8521256931287109
 11
10.866913123772871
 21
4.8521256931287144
  0
LINE
  8
0
 62
5
  6
CONTINUOUS
 10
10.866913123772871
 20
4.8521256931287144
 11
10.951940850204849
 21
4.7670979666967375
  0
LINE
  8
0
 62
5
  6
CONTINUOUS
 10
10.951940850204849
 20
4.7670979666967375
 11
10.951940850204851
 21
4.012939001821886
  0
LINE
  8
0
 62
5
  6
CONTINUOUS
 10
10.951940850204851
 20
4.012939001821886
 11
10.866913123772877
 21
3.9279112753899086
  0
LINE
  8
0
 62
5
  6
CONTINUOUS
 10
10.866913123772877
 20
3.9279112753899086
 11
9.1035120147272384
 21
3.9279112753899046
  0
LINE
  8
0
 62
5
  6
CONTINUOUS
 10
10.866913123772871
 20
4.8521256931287144
 11
10.866913123772877
 21
3.9279112753899086
  0
LINE
  8
0
 62
50
  6
CONTINUOUS
 10
9.0573012938403004
 20
3.4842883548752823
 11
9.057301293840295
 21
5.2957486136433332
  0
LINE
  8
0
 62
50
  6
CONTINUOUS
 10
9.0573012938402986
 20
5.1756007393372929
 11
9.1035120147272384
 21
5.1756007393372929
  0
LINE
  8
0
 62
50
  6
CONTINUOUS
 10
9.1035120147272384
 20
3.6044362291813226
 11
9.0573012938402986
 21
3.6044362291813226
  0
LINE
  8
0
 62
5
  6
CONTINUOUS
 10
10.951940850204849
 20
4.7670979666967375
 11
9.1035120147272384
 21
4.7670979666967339
  0
LINE
  8
0
 62
5
  6
CONTINUOUS
 10
10.951940850204851
 20
4.012939001821886
 11
9.1035120147272384
 21
4.0129390018218816
  0
ENDBLK
  0
BLOCK
  8
249
 62
5
  6
DASHDOT
  2
TELL_8
 70
0
 10
10.951940850204851
 20
4.3900184842593282
  0
CIRCLE
  8
249
 62
50
  6
CONTINUOUS
 10
10.951940850204849
 20
4.3900184842593069
 40
0.37707948243743283
  0
ARC
  8
249
 62
5
  6
CONTINUOUS
 10
10.951940850204849
 20
4.3900184842593069
 40
0.46210720886940293
 50
175.00000000000003
 51
90
  0
LINE
  8
249
 62
5
  6
DASHDOT
 10
10.951940850204849
 20
5.0369685766764709
 11
10.951940850204849
 21
3.7430683918421428
  0
ENDBLK
  0
BLOCK
  8
0
 62
5
  6
DASHDOT
  2
TELL_9
 70
0
 10
14.186691312290671
 20
4.3900184842593069
  0
CIRCLE
  8
0
 62
50
  6
CONTINUOUS
 10
14.186691312290671
 20
4.3900184842592864
 40
0.37707948243743283
  0
ARC
  8
0
 62
5
  6
CONTINUOUS
 10
14.186691312290671
 20
4.3900184842592864
 40
0.46210720886940293
 50
175.00000000000003
 51
90
  0
LINE
  8
0
 62
5
  6
DASHDOT
 10
14.186691312290671
 20
5.0369685766764505
 11
14.186691312290671
 21
3.7430683918421219
  0
ENDBLK
  0
BLOCK
  8
0
 62
50
  6
CONTINUOUS
  2
3_51_CMED
 70
0
 10
12.569316081432603
 20
1.6634843020315148e-010
  0
INSERT
  8
0
 62
140
  6
CONTINUOUS
  2
TELL_4
 10
14.383887748840822
 20
0.46210720887234497
 41
1.0
 42
1.0
 50
0.0
  0
LINE
  8
0
 62
50
  6
CONTINUOUS
 10
12.892791127456343
 20
0.6931608133041044
 11
12.892791127456343
 21
5.7763401108675367
  0
LINE
  8
0
 62
50
  6
CONTINUOUS
 10
12.892791127456343
 20
5.7763401108675367
 11
15.480591497124999
 21
5.7763401108675367
  0
LINE
  8
0
 62
50
  6
CONTINUOUS
 10
15.203327171803357
 20
5.6839186690936563
 11
15.203327171803357
 21
3.0961182994249996
  0
LINE
  8
0
 62
5
  6
CONTINUOUS
 10
15.20332717198286
 20
2.911275416043587
 11
15.20332717198286
 21
0.69316081347045289
  0
LINE
  8
0
 62
5
  6
CONTINUOUS
 10
13.170055452957488
 20
0.69316081347045289
 11
13.170055452957488
 21
5.7763401110338854
  0
LINE
  8
0
 62
50
  6
CONTINUOUS
 10
15.203327171803357
 20
5.6839186690936563
 11
16.035120147768282
 21
5.6839186690936563
  0
LINE
  8
0
 62
50
  6
CONTINUOUS
 10
16.035120147768282
 20
5.6839186690936563
 11
16.035120147768282
 21
3.0961182994249996
  0
LINE
  8
0
 62
50
  6
CONTINUOUS
 10
15.480591497124999
 20
0.6931608133041044
 11
15.480591497124999
 21
3.0961182994249996
  0
LINE
  8
0
 62
5
  6
CONTINUOUS
 10
15.480591497304502
 20
3.1885397413652288
 11
15.480591497304502
 21
5.5914972274861245
  0
LINE
  8
0
 62
50
  6
CONTINUOUS
 10
15.480591497124999
 20
5.6839186690936563
 11
15.480591497124999
 21
5.7763401108675367
  0
LINE
  8
0
 62
50
  6
CONTINUOUS
 10
15.203327171803357
 20
3.0961182994249996
 11
16.035120147768282
 21
3.0961182994249996
  0
LINE
  8
0
 62
50
  6
CONTINUOUS
 10
19.500924214288805
 20
-0.32347504620858208
 11
19.500924214288805
 21
0.23105360443470147
  0
LINE
  8
0
 62
50
  6
CONTINUOUS
 10
5.6377079482067165
 20
-0.32347504620858208
 11
5.6377079482067165
 21
0.23105360443470147
  0
LINE
  8
0
 62
5
  6
CONTINUOUS
 10
5.6377079482013785
 20
-0.092421441607532157
 11
19.500924214468309
 21
-0.092421441607532157
  0
LINE
  8
0
 62
50
  6
CONTINUOUS
 10
19.500924214288805
 20
-0.32347504620858208
 11
18.753890594270189
 21
-1.6173752310429104
  0
LINE
  8
0
 62
50
  6
CONTINUOUS
 10
18.753890594270189
 20
-1.6173752310429104
 11
6.3847415682253335
 21
-1.6173752310429104
  0
LINE
  8
0
 62
50
  6
CONTINUOUS
 10
6.3847415682253335
 20
-1.6173752310429104
 11
5.6377079482067165
 21
-0.32347504620858208
  0
LINE
  8
0
 62
50
  6
CONTINUOUS
 10
5.6377079482067165
 20
0.23105360443470147
 11
12.892791127456343
 21
0.23105360443470147
  0
LINE
  8
0
 62
50
  6
CONTINUOUS
 10
12.892791127456343
 20
0.23105360443470147
 11
15.874984370225279
 21
0.23105360443470147
  0
LINE
  8
0
 62
50
  6
CONTINUOUS
 10
15.874984370225279
 20
0.23105360443470147
 11
19.500924214288805
 21
0.23105360443470147
  0
LINE
  8
0
 62
50
  6
CONTINUOUS
 10
15.874984370225279
 20
0.23105360443470147
 11
15.480591497124999
 21
0.69316081330998847
  0
LINE
  8
0
 62
50
  6
CONTINUOUS
 10
12.892791127456343
 20
0.6931608133041044
 11
15.480591497124999
 21
0.6931608133041044
  0
LINE
  8
0
 62
50
  6
CONTINUOUS
 10
12.892791127456343
 20
0.6931608133041044
 11
12.892791127456343
 21
0.23105360443470147
  0
LINE
  8
0
 62
5
  6
DASHDOT
 10
8.2153150645148809
 20
4.3900184842593069
 11
16.92331709798064
 21
4.3900184842593069
  0
INSERT
  8
0
 62
5
  6
DASHDOT
  2
TELL_5
 10
16.035120147953126
 20
4.3900184844256867
 41
1.0
 42
1.0
 50
0.0
  0
INSERT
  8
0
 62
140
  6
CONTINUOUS
  2
TELL_6
 10
10.7547444136547
 20
0.46210720887234497
 41
1.0
 42
1.0
 50
0.0
  0
LINE
  8
0
 62
50
  6
CONTINUOUS
 10
12.245841035039179
 20
0.6931608133041044
 11
12.245841035039179
 21
5.7763401108675367
  0
LINE
  8
0
 62
50
  6
CONTINUOUS
 10
12.245841035039179
 20
5.7763401108675367
 11
9.6580406653705211
 21
5.7763401108675367
  0
LINE
  8
0
 62
50
  6
CONTINUOUS
 10
9.9353049906921633
 20
5.6839186690936563
 11
9.9353049906921633
 21
3.0961182994249996
  0
LINE
  8
0
 62
5
  6
CONTINUOUS
 10
9.9353049905126607
 20
2.911275416043587
 11
9.9353049905126607
 21
0.69316081347045289
  0
LINE
  8
0
 62
5
  6
CONTINUOUS
 10
11.968576709538032
 20
0.69316081347045289
 11
11.968576709538032
 21
5.7763401110338854
  0
LINE
  8
0
 62
50
  6
CONTINUOUS
 10
9.9353049906921633
 20
5.6839186690936563
 11
9.1035120147272384
 21
5.6839186690936563
  0
LINE
  8
0
 62
50
  6
CONTINUOUS
 10
9.1035120147272384
 20
5.6839186690936563
 11
9.1035120147272384
 21
3.0961182994249996
  0
LINE
  8
0
 62
50
  6
CONTINUOUS
 10
9.6580406653705211
 20
0.6931608133041044
 11
9.6580406653705211
 21
3.0961182994249996
  0
LINE
  8
0
 62
5
  6
CONTINUOUS
 10
9.6580406651910184
 20
3.1885397413652288
 11
9.6580406651910184
 21
5.5914972274861245
  0
LINE
  8
0
 62
50
  6
CONTINUOUS
 10
9.6580406653705211
 20
5.6839186690936563
 11
9.6580406653705211
 21
5.7763401108675367
  0
LINE
  8
0
 62
50
  6
CONTINUOUS
 10
9.9353049906921633
 20
3.0961182994249996
 11
9.1035120147272384
 21
3.0961182994249996
  0
LINE
  8
0
 62
50
  6
CONTINUOUS
 10
12.245841035039179
 20
0.23105360443470147
 11
9.2636477922702429
 21
0.23105360443470147
  0
LINE
  8
0
 62
50
  6
CONTINUOUS
 10
9.2636477922702429
 20
0.23105360443470147
 11
9.6580406653705211
 21
0.69316081330998847
  0
LINE
  8
0
 62
50
  6
CONTINUOUS
 10
12.245841035039179
 20
0.6931608133041044
 11
9.6580406653705211
 21
0.6931608133041044
  0
LINE
  8
0
 62
50
  6
CONTINUOUS
 10
12.245841035039179
 20
0.6931608133041044
 11
12.245841035039179
 21
0.23105360443470147
  0
INSERT
  8
0
 62
5
  6
DASHDOT
  2
TELL_7
 10
9.1035120145516366
 20
4.3900184844256867
 41
1.0
 42
1.0
 50
0.0
  0
LINE
  8
0
 62
5
  6
DASHDOT
 10
6.7929759703802235
 20
-0.48397767393543023
 11
6.7929759703802235
 21
0.6545918374363735
  0
LINE
  8
0
 62
5
  6
DASHDOT
 10
18.345656192115296
 20
-0.48397767393543023
 11
18.345656192115296
 21
0.6545918374363735
  0
INSERT
  8
249
 62
5
  6
DASHDOT
  2
TELL_8
 10
10.951940850204851
 20
4.3900184842593282
 41
1.0
 42
1.0
 50
0.0
  0
INSERT
  8
0
 62
5
  6
DASHDOT
  2
TELL_9
 10
14.186691312290671
 20
4.3900184842593069
 41
1.0
 42
1.0
 50
0.0
  0
ENDBLK
  0
BLOCK
  8
0
 62
5
  6
DASHDOT
  2
TELL_11
 70
0
 10
-5.337607538096033e-012
 20
-15.480591496958651
  0
LINE
  8
0
 62
50
  6
CONTINUOUS
 10
0.90573012938402564
 20
-15.526802218011939
 11
0.90573012938402653
 21
-16.066869175359912
  0
ARC
  8
0
 62
50
  6
CONTINUOUS
 10
0.67929759703802473
 20
-15.67467652485014
 40
0.45286506469201493
 50
227.54026094004348
 51
300
  0
ARC
  8
0
 62
50
  6
CONTINUOUS
 10
2.5383531678367048e-025
 20
-15.480591497124999
 40
0.64695009241716417
 50
234.72863805591317
 51
305.27136194408683
  0
ARC
  8
0
 62
50
  6
CONTINUOUS
 10
-0.67929759703802417
 20
-15.67467652485014
 40
0.45286506469201493
 50
240
 51
312.45973905995652
  0
LINE
  8
0
 62
50
  6
CONTINUOUS
 10
-0.90573012938402464
 20
-16.066869175359912
 11
-0.90573012938402564
 21
-15.526802218011939
  0
LINE
  8
0
 62
50
  6
CONTINUOUS
 10
0.37358108728958345
 20
-16.008778578847096
 11
0.37358108728958261
 21
-15.526802218011939
  0
LINE
  8
0
 62
50
  6
CONTINUOUS
 10
-0.37358108728958178
 20
-16.008778578847096
 11
-0.37358108728958261
 21
-15.526802218011939
  0
LINE
  8
0
 62
50
  6
CONTINUOUS
 10
0.67929759703802539
 20
-16.127541589542162
 11
-0.6792975970380235
 21
-16.127541589542162
  0
LINE
  8
0
 62
5
  6
CONTINUOUS
 10
0.46210720886940293
 20
-15.480591497124999
 11
0.46210720886940032
 21
-13.717190388079365
  0
LINE
  8
0
 62
5
  6
CONTINUOUS
 10
0.46210720886940032
 20
-13.717190388079365
 11
0.37707948243743383
 21
-13.632162661647387
  0
LINE
  8
0
 62
5
  6
CONTINUOUS
 10
0.37707948243743383
 20
-13.632162661647387
 11
-0.37707948243743938
 21
-13.632162661647387
  0
LINE
  8
0
 62
5
  6
CONTINUOUS
 10
-0.37707948243743938
 20
-13.632162661647387
 11
-0.46210720886940559
 21
-13.717190388079365
  0
LINE
  8
0
 62
5
  6
CONTINUOUS
 10
-0.46210720886940559
 20
-13.717190388079365
 11
-0.46210720886940293
 21
-15.480591497124999
  0
LINE
  8
0
 62
5
  6
CONTINUOUS
 10
0.46210720886940032
 20
-13.717190388079365
 11
-0.46210720886940559
 21
-13.717190388079365
  0
LINE
  8
0
 62
50
  6
CONTINUOUS
 10
-0.90573012938402564
 20
-15.526802218011939
 11
0.90573012938402564
 21
-15.526802218011939
  0
LINE
  8
0
 62
50
  6
CONTINUOUS
 10
0.78558225507798507
 20
-15.526802218011939
 11
0.78558225507798507
 21
-15.480591497124999
  0
LINE
  8
0
 62
50
  6
CONTINUOUS
 10
-0.78558225507798507
 20
-15.480591497124999
 11
-0.78558225507798507
 21
-15.526802218011939
  0
LINE
  8
0
 62
5
  6
CONTINUOUS
 10
0.37707948243743383
 20
-13.632162661647387
 11
0.37707948243743661
 21
-15.480591497124999
  0
LINE
  8
0
 62
5
  6
CONTINUOUS
 10
-0.37707948243743938
 20
-13.632162661647387
 11
-0.37707948243743661
 21
-15.480591497124999
  0
ENDBLK
  0
BLOCK
  8
0
 62
5
  6
DASHDOT
  2
TELL_12
 70
0
 10
-5.337607538096033e-012
 20
-8.5489833642482012
  0
LINE
  8
0
 62
50
  6
CONTINUOUS
 10
0.90573012938402564
 20
-8.5027726431949109
 11
0.90573012938402464
 21
-7.9627056858469389
  0
ARC
  8
0
 62
50
  6
CONTINUOUS
 10
0.67929759703802417
 20
-8.3548983363567118
 40
0.45286506469201493
 50
60
 51
132.45973905995652
  0
ARC
  8
0
 62
50
  6
CONTINUOUS
 10
-2.5383531678367048e-025
 20
-8.5489833640818524
 40
0.64695009241716417
 50
54.728638055913166
 51
125.27136194408683
  0
ARC
  8
0
 62
50
  6
CONTINUOUS
 10
-0.67929759703802473
 20
-8.3548983363567118
 40
0.45286506469201493
 50
47.540260940043481
 51
120
  0
LINE
  8
0
 62
50
  6
CONTINUOUS
 10
-0.90573012938402653
 20
-7.9627056858469389
 11
-0.90573012938402564
 21
-8.5027726431949162
  0
LINE
  8
0
 62
50
  6
CONTINUOUS
 10
0.37358108728958178
 20
-8.0207962823597541
 11
0.37358108728958261
 21
-8.5027726431949127
  0
LINE
  8
0
 62
50
  6
CONTINUOUS
 10
-0.37358108728958345
 20
-8.0207962823597541
 11
-0.37358108728958261
 21
-8.5027726431949127
  0
LINE
  8
0
 62
50
  6
CONTINUOUS
 10
0.6792975970380235
 20
-7.9020332716646893
 11
-0.67929759703802539
 21
-7.9020332716646893
  0
LINE
  8
0
 62
5
  6
CONTINUOUS
 10
0.46210720886940293
 20
-8.5489833640818524
 11
0.46210720886940559
 21
-10.312384473127489
  0
LINE
  8
0
 62
5
  6
CONTINUOUS
 10
0.46210720886940559
 20
-10.312384473127489
 11
0.37707948243743938
 21
-10.397412199559465
  0
LINE
  8
0
 62
5
  6
CONTINUOUS
 10
0.37707948243743938
 20
-10.397412199559465
 11
-0.37707948243743383
 21
-10.397412199559465
  0
LINE
  8
0
 62
5
  6
CONTINUOUS
 10
-0.37707948243743383
 20
-10.397412199559465
 11
-0.46210720886940032
 21
-10.312384473127489
  0
LINE
  8
0
 62
5
  6
CONTINUOUS
 10
-0.46210720886940032
 20
-10.312384473127489
 11
-0.46210720886940293
 21
-8.5489833640818524
  0
LINE
  8
0
 62
5
  6
CONTINUOUS
 10
0.46210720886940559
 20
-10.312384473127489
 11
-0.46210720886940032
 21
-10.312384473127489
  0
LINE
  8
0
 62
50
  6
CONTINUOUS
 10
-0.90573012938402564
 20
-8.5027726431949162
 11
0.90573012938402564
 21
-8.5027726431949109
  0
LINE
  8
0
 62
50
  6
CONTINUOUS
 10
0.78558225507798507
 20
-8.5027726431949127
 11
0.78558225507798507
 21
-8.5489833640818524
  0
LINE
  8
0
 62
50
  6
CONTINUOUS
 10
-0.78558225507798507
 20
-8.5489833640818524
 11
-0.78558225507798507
 21
-8.5027726431949127
  0
LINE
  8
0
 62
5
  6
CONTINUOUS
 10
0.37707948243743938
 20
-10.397412199559465
 11
0.37707948243743661
 21
-8.5489833640818524
  0
LINE
  8
0
 62
5
  6
CONTINUOUS
 10
-0.37707948243743383
 20
-10.397412199559465
 11
-0.37707948243743661
 21
-8.5489833640818524
  0
ENDBLK
  0
BLOCK
  8
0
 62
5
  6
DASHDOT
  2
TELL_10
 70
0
 10
-5.3376075380977948e-012
 20
-12.014787430419632
  0
LINE
  8
0
 62
50
  6
CONTINUOUS
 10
-1.9408502772514924
 20
-18.946395563644472
 11
-1.9408502772514924
 21
-5.0831792975623822
  0
LINE
  8
0
 62
50
  6
CONTINUOUS
 10
1.9408502772514924
 20
-5.0831792975623822
 11
1.9408502772514924
 21
-18.946395563644472
  0
LINE
  8
0
 62
50
  6
CONTINUOUS
 10
-1.9408502772514924
 20
-5.0831792975623822
 11
1.9408502772514924
 21
-5.0831792975623822
  0
LINE
  8
0
 62
5
  6
CONTINUOUS
 10
1.6173752310375726
 20
-5.0831792973970842
 11
1.6173752310375726
 21
-8.658734849129452
  0
LINE
  8
0
 62
50
  6
CONTINUOUS
 10
-1.9408502772514924
 20
-18.946395563644472
 11
1.9408502772514924
 21
-18.946395563644472
  0
LINE
  8
0
 62
5
  6
CONTINUOUS
 10
-1.6173752310482479
 20
-18.946395563479172
 11
-1.6173752310482479
 21
-15.370840011746804
  0
LINE
  8
0
 62
5
  6
CONTINUOUS
 10
-1.6173752310482479
 20
-8.658734849129452
 11
-1.6173752310482479
 21
-5.0831792973970842
  0
LINE
  8
0
 62
5
  6
CONTINUOUS
 10
1.6173752310375726
 20
-15.370840011746804
 11
1.6173752310375726
 21
-18.946395563479172
  0
LINE
  8
0
 62
50
  6
CONTINUOUS
 10
1.3401109057212581
 20
-15.480591497124999
 11
-1.3401109057173599
 21
-15.480591497123948
  0
LINE
  8
0
 62
50
  6
CONTINUOUS
 10
-1.8946395563606435
 20
-14.926062846481715
 11
-1.8946395563645522
 21
-14.648798521159023
  0
LINE
  8
0
 62
50
  6
CONTINUOUS
 10
-1.8946395563645522
 20
-14.648798521159023
 11
-1.6173752310429104
 21
-14.648798521159023
  0
LINE
  8
0
 62
50
  6
CONTINUOUS
 10
-1.6173752310429104
 20
-14.648798521159023
 11
-1.6173752310390017
 21
-14.926062846481715
  0
LINE
  8
0
 62
50
  6
CONTINUOUS
 10
-1.3401109057173599
 20
-15.203327171803357
 11
1.3401109057212581
 21
-15.203327171803357
  0
LINE
  8
0
 62
50
  6
CONTINUOUS
 10
1.6173752310428999
 20
-14.926062846481715
 11
1.6173752310389913
 21
-14.648798521159023
  0
LINE
  8
0
 62
50
  6
CONTINUOUS
 10
1.6173752310389913
 20
-14.648798521159023
 11
1.8946395563606331
 21
-14.648798521159023
  0
LINE
  8
0
 62
50
  6
CONTINUOUS
 10
1.8946395563606331
 20
-14.648798521159023
 11
1.8946395563645415
 21
-14.926062846481715
  0
LINE
  8
0
 62
50
  6
CONTINUOUS
 10
1.293900184838237
 20
-12.615526802134701
 11
1.2939001848343283
 21
-14.648798521160074
  0
LINE
  8
0
 62
50
  6
CONTINUOUS
 10
1.0166358595165952
 20
-14.926062846481715
 11
-1.0166358595087779
 21
-14.926062846480665
  0
LINE
  8
0
 62
50
  6
CONTINUOUS
 10
-1.2939001848304197
 20
-14.648798521160074
 11
-1.2939001848304197
 21
-12.615526802134701
  0
LINE
  8
0
 62
50
  6
CONTINUOUS
 10
-1.0166358595087779
 20
-12.338262476813059
 11
1.0166358595165952
 21
-12.338262476813059
  0
LINE
  8
0
 62
50
  6
CONTINUOUS
 10
-1.0628465803957181
 20
-12.615526802134701
 11
-1.0628465803996268
 21
-14.648798521160074
  0
LINE
  8
0
 62
50
  6
CONTINUOUS
 10
-1.0166358595087779
 20
-14.695009242047014
 11
1.0166358595165952
 21
-14.695009242047014
  0
LINE
  8
0
 62
50
  6
CONTINUOUS
 10
1.0628465804035354
 20
-14.648798521160074
 11
1.0628465804035354
 21
-12.615526802134701
  0
LINE
  8
0
 62
50
  6
CONTINUOUS
 10
1.0166358595165952
 20
-12.569316081247761
 11
-1.0166358595087779
 21
-12.56931608124671
  0
CIRCLE
  8
0
 62
50
  6
CONTINUOUS
 10
4.202840581177979e-014
 20
-6.2384473197359105
 40
0.462107208869455
  0
CIRCLE
  8
0
 62
50
  6
CONTINUOUS
 10
-4.202840581177979e-014
 20
-17.791127541470985
 40
0.46210720886945278
  0
ARC
  8
0
 62
50
  6
CONTINUOUS
 10
-1.0166358595126865
 20
-14.648798521159023
 40
0.046210720886940296
 50
180.00000000130277
 51
270
  0
ARC
  8
0
 62
50
  6
CONTINUOUS
 10
1.0166358595126865
 20
-14.648798521160074
 40
0.046210720886940296
 50
270
 51
0
  0
ARC
  8
0
 62
50
  6
CONTINUOUS
 10
-1.0166358595126865
 20
-12.615526802133649
 40
0.046210720886940296
 50
90
 51
180.00000000130277
  0
ARC
  8
0
 62
50
  6
CONTINUOUS
 10
1.0166358595165952
 20
-12.615526802133649
 40
0.046210720886940296
 50
359.99999999869726
 51
90
  0
ARC
  8
0
 62
50
  6
CONTINUOUS
 10
-1.016635859512697
 20
-14.648798521159023
 40
0.2772643253216418
 50
180.00000000021711
 51
270
  0
ARC
  8
0
 62
50
  6
CONTINUOUS
 10
1.0166358595126865
 20
-14.648798521159023
 40
0.2772643253216418
 50
270
 51
359.99999999978286
  0
ARC
  8
0
 62
50
  6
CONTINUOUS
 10
-1.0166358595087779
 20
-12.615526802133649
 40
0.2772643253216418
 50
90
 51
180.00000000021711
  0
ARC
  8
0
 62
50
  6
CONTINUOUS
 10
1.0166358595126865
 20
-12.615526802134701
 40
0.2772643253216418
 50
0
 51
90
  0
ARC
  8
0
 62
50
  6
CONTINUOUS
 10
-1.3401109057212686
 20
-14.926062846480665
 40
0.2772643253216418
 50
180.00000000021711
 51
270
  0
ARC
  8
0
 62
50
  6
CONTINUOUS
 10
1.3401109057173495
 20
-14.926062846481715
 40
0.2772643253216418
 50
270
 51
0
  0
ARC
  8
0
 62
50
  6
CONTINUOUS
 10
-1.3401109057212581
 20
-14.926062846480665
 40
0.5545286506432836
 50
180.00000000010857
 51
270
  0
ARC
  8
0
 62
50
  6
CONTINUOUS
 10
1.3401109057173495
 20
-14.926062846480665
 40
0.5545286506432836
 50
270
 51
359.99999999989143
  0
INSERT
  8
0
 62
5
  6
DASHDOT
  2
TELL_11
 10
-5.337607538096033e-012
 20
-15.480591496958651
 41
1.0
 42
1.0
 50
0.0
  0
LINE
  8
0
 62
50
  6
CONTINUOUS
 10
1.3401109057212581
 20
-8.5489833640818524
 11
-1.3401109057173599
 21
-8.548983364082904
  0
LINE
  8
0
 62
50
  6
CONTINUOUS
 10
-1.8946395563606435
 20
-9.1035120147251369
 11
-1.8946395563645522
 21
-9.380776340047829
  0
LINE
  8
0
 62
50
  6
CONTINUOUS
 10
-1.8946395563645522
 20
-9.380776340047829
 11
-1.6173752310429104
 21
-9.380776340047829
  0
LINE
  8
0
 62
50
  6
CONTINUOUS
 10
-1.6173752310429104
 20
-9.380776340047829
 11
-1.6173752310390017
 21
-9.1035120147251369
  0
LINE
  8
0
 62
50
  6
CONTINUOUS
 10
-1.3401109057173599
 20
-8.8262476894034947
 11
1.3401109057212581
 21
-8.8262476894034947
  0
LINE
  8
0
 62
50
  6
CONTINUOUS
 10
1.6173752310428999
 20
-9.1035120147251369
 11
1.6173752310389913
 21
-9.380776340047829
  0
LINE
  8
0
 62
50
  6
CONTINUOUS
 10
1.6173752310389913
 20
-9.380776340047829
 11
1.8946395563606331
 21
-9.380776340047829
  0
LINE
  8
0
 62
50
  6
CONTINUOUS
 10
1.8946395563606331
 20
-9.380776340047829
 11
1.8946395563645415
 21
-9.1035120147251369
  0
LINE
  8
0
 62
50
  6
CONTINUOUS
 10
1.293900184838237
 20
-11.414048059072151
 11
1.2939001848343283
 21
-9.3807763400467792
  0
LINE
  8
0
 62
50
  6
CONTINUOUS
 10
1.0166358595165952
 20
-9.1035120147251369
 11
-1.0166358595087779
 21
-9.1035120147261868
  0
LINE
  8
0
 62
50
  6
CONTINUOUS
 10
-1.2939001848304197
 20
-9.3807763400467792
 11
-1.2939001848304197
 21
-11.414048059072151
  0
LINE
  8
0
 62
50
  6
CONTINUOUS
 10
-1.0166358595087779
 20
-11.691312384393793
 11
1.0166358595165952
 21
-11.691312384393793
  0
LINE
  8
0
 62
50
  6
CONTINUOUS
 10
-1.0628465803957181
 20
-11.414048059072151
 11
-1.0628465803996268
 21
-9.3807763400467792
  0
LINE
  8
0
 62
50
  6
CONTINUOUS
 10
-1.0166358595087779
 20
-9.3345656191598376
 11
1.0166358595165952
 21
-9.3345656191598376
  0
LINE
  8
0
 62
50
  6
CONTINUOUS
 10
1.0628465804035354
 20
-9.3807763400467792
 11
1.0628465804035354
 21
-11.414048059072151
  0
LINE
  8
0
 62
50
  6
CONTINUOUS
 10
1.0166358595165952
 20
-11.460258779959092
 11
-1.0166358595087779
 21
-11.460258779960142
  0
ARC
  8
0
 62
50
  6
CONTINUOUS
 10
-1.0166358595126865
 20
-9.380776340047829
 40
0.046210720886940296
 50
90
 51
179.99999999869723
  0
ARC
  8
0
 62
50
  6
CONTINUOUS
 10
1.0166358595126865
 20
-9.3807763400467792
 40
0.046210720886940296
 50
0
 51
90
  0
ARC
  8
0
 62
50
  6
CONTINUOUS
 10
-1.0166358595126865
 20
-11.414048059073203
 40
0.046210720886940296
 50
179.99999999869723
 51
270
  0
ARC
  8
0
 62
50
  6
CONTINUOUS
 10
1.0166358595165952
 20
-11.414048059073203
 40
0.046210720886940296
 50
270
 51
1.3027374734519981e-009
  0
ARC
  8
0
 62
50
  6
CONTINUOUS
 10
-1.016635859512697
 20
-9.380776340047829
 40
0.2772643253216418
 50
90
 51
179.99999999978289
  0
ARC
  8
0
 62
50
  6
CONTINUOUS
 10
1.0166358595126865
 20
-9.380776340047829
 40
0.2772643253216418
 50
2.1714186004828662e-010
 51
90
  0
ARC
  8
0
 62
50
  6
CONTINUOUS
 10
-1.0166358595087779
 20
-11.414048059073203
 40
0.2772643253216418
 50
179.99999999978289
 51
270
  0
ARC
  8
0
 62
50
  6
CONTINUOUS
 10
1.0166358595126865
 20
-11.414048059072151
 40
0.2772643253216418
 50
270
 51
0
  0
ARC
  8
0
 62
50
  6
CONTINUOUS
 10
-1.3401109057212686
 20
-9.1035120147261868
 40
0.2772643253216418
 50
90
 51
179.99999999978289
  0
ARC
  8
0
 62
50
  6
CONTINUOUS
 10
1.3401109057173495
 20
-9.1035120147251369
 40
0.2772643253216418
 50
0
 51
90
  0
ARC
  8
0
 62
50
  6
CONTINUOUS
 10
-1.3401109057212581
 20
-9.1035120147261868
 40
0.5545286506432836
 50
90
 51
179.99999999989143
  0
ARC
  8
0
 62
50
  6
CONTINUOUS
 10
1.3401109057173495
 20
-9.1035120147261868
 40
0.5545286506432836
 50
1.0857093002414331e-010
 51
90
  0
INSERT
  8
0
 62
5
  6
DASHDOT
  2
TELL_12
 10
-5.337607538096033e-012
 20
-8.5489833642482012
 41
1.0
 42
1.0
 50
0.0
  0
LINE
  8
0
 62
5
  6
DASHDOT
 10
-0.55452865064338863
 20
-17.791127541470985
 11
0.55452865064330459
 21
-17.791127541470985
  0
LINE
  8
0
 62
5
  6
DASHDOT
 10
-0.55452865064330459
 20
-6.2384473197359105
 11
0.55452865064338863
 21
-6.2384473197359105
  0
LINE
  8
0
 62
5
  6
CONTINUOUS
 10
-1.6173752310482479
 20
-14.648798521159023
 11
-1.6173752310482479
 21
-9.380776340047829
  0
LINE
  8
0
 62
5
  6
CONTINUOUS
 10
1.6173752310375726
 20
-14.648798521159023
 11
1.6173752310375726
 21
-9.380776340047829
  0
LINE
  8
0
 62
5
  6
DASHDOT
 10
0
 20
-19.223659888966111
 11
0
 21
-4.8059149722407399
  0
ENDBLK
  0
ENDSEC
  0
SECTION
  2
ENTITIES
  0
INSERT
  8
0
 62
5
  6
DASHDOT
  2
TELL_1
 10
-5.337607538096033e-012
 20
1.6634843020302441e-010
 41
1.0
 42
1.0
 50
0.0
  0
INSERT
  8
0
 62
50
  6
CONTINUOUS
  2
3_51_CMED
 10
12.569316081432603
 20
1.6634843020315148e-010
 41
1.0
 42
1.0
 50
0.0
  0
INSERT
  8
0
 62
5
  6
DASHDOT
  2
TELL_10
 10
-5.3376075380977948e-012
 20
-12.014787430419632
 41
1.0
 42
1.0
 50
0.0
  0
ENDSEC
  0
EOF
