  0
SECTION
  2
HEADER
  9
$ACADVER
  1
AC1009
  9
$EXTMIN
 10
-2.4321266968155095
 20
-17.873303167274877
  9
$EXTMAX
 10
19.921879358874648
 20
7.1266968327251252
  9
$TEXTSTYLE
  7
STANDARD
  9
$DIMLFAC
 40
1
  9
$REGENMODE
 70
1
  9
$DRAGMODE
 70
2
  9
$DIMASO
 70
1
  9
$LTSCALE
 40
1.0000000000
  0
ENDSEC
  0
SECTION
  2
TABLES
  0
TABLE
  2
LTYPE
 70
2
  0
LTYPE
  2
CONTINUOUS
 70
64
  3
CONTINUOUS
 72
65
 73
0
 40
0.0000000000
  0
LTYPE
  2
DASHDOT
 70
64
  3
DASHDOT
 72
65
 73
4
 40
1.0000000000
 49
0.5000000000
 49
-0.2500000000
 49
0.0000000000
 49
-0.2500000000
  0
ENDTAB
  0
TABLE
  2
LAYER
 70
2
  0
LAYER
  2
0
 70
0
 62
2
  6
CONTINUOUS
  0
LAYER
  2
249
 70
0
 62
2
  6
CONTINUOUS
  0
ENDTAB
  0
TABLE
  2
STYLE
 70
0
  0
STYLE
  2
Standard
 70
0
 40
0
 41
1
 50
0
 71
0
 42
2.5
  3
txt
  4

  0
ENDTAB
  0
ENDSEC
  0
SECTION
  2
BLOCKS
  0
BLOCK
  8
0
 62
140
  6
CONTINUOUS
  2
TELL_2
 70
0
 10
2.7521474289851771e-012
 20
0.50311461713267946
  0
LINE
  8
0
 62
50
  6
CONTINUOUS
 10
-1.7533936651467936
 20
0.33936651583435795
 11
1.7533936651415722
 21
0.33936651583435795
  0
ARC
  8
0
 62
50
  6
CONTINUOUS
 10
1.7533936651441699
 20
-0.33936651583435795
 40
0.6787330316687159
 50
40.479635532479818
 51
90
  0
LINE
  8
0
 62
50
  6
CONTINUOUS
 10
2.269662951755036
 20
0.10125185870959155
 11
1.5837104072270167
 21
0.90497737555828794
  0
LINE
  8
0
 62
50
  6
CONTINUOUS
 10
1.5837104072270038
 20
0.90497737555828794
 11
-1.5837104072270038
 21
0.90497737555828794
  0
LINE
  8
0
 62
50
  6
CONTINUOUS
 10
-1.5837104072270038
 20
0.90497737555828794
 11
-2.2696629517489528
 21
0.10125185870959155
  0
ARC
  8
0
 62
50
  6
CONTINUOUS
 10
-1.7533936651441828
 20
-0.33936651583435795
 40
0.6787330316687159
 50
90
 51
139.52036446718614
  0
ENDBLK
  0
BLOCK
  8
0
 62
5
  6
DASHDOT
  2
TELL_3
 70
0
 10
0
 20
5.4298642533497272
  0
LINE
  8
0
 62
50
  6
CONTINUOUS
 10
0.55514448960092233
 20
6.3914027148804085
 11
1.1102889792018318
 21
5.4298642533497272
  0
LINE
  8
0
 62
50
  6
CONTINUOUS
 10
1.1102889792018318
 20
5.4298642533497272
 11
0.55514448960092233
 21
4.4683257918190469
  0
LINE
  8
0
 62
50
  6
CONTINUOUS
 10
0.55514448960092233
 20
4.4683257918190469
 11
-0.55514448960092233
 21
4.4683257918190469
  0
LINE
  8
0
 62
50
  6
CONTINUOUS
 10
-0.55514448960092233
 20
4.4683257918190469
 11
-1.1102889792018318
 21
5.4298642533497272
  0
LINE
  8
0
 62
50
  6
CONTINUOUS
 10
-1.1102889792018318
 20
5.4298642533497272
 11
-0.55514448960092233
 21
6.3914027148804085
  0
LINE
  8
0
 62
50
  6
CONTINUOUS
 10
-0.55514448960092233
 20
6.3914027148804085
 11
0.55514448960092233
 21
6.3914027148804085
  0
CIRCLE
  8
0
 62
50
  6
CONTINUOUS
 10
0
 20
5.4298642533497272
 40
0.9615384615306809
  0
LINE
  8
0
 62
5
  6
DASHDOT
 10
-1.2799722371190108
 20
5.4298642533497272
 11
1.2799722371190108
 21
5.4298642533497272
  0
LINE
  8
0
 62
5
  6
DASHDOT
 10
0
 20
4.2986425339018677
 11
0
 21
6.5610859727975877
  0
ENDBLK
  0
BLOCK
  8
0
 62
5
  6
DASHDOT
  2
TELL_1
 70
0
 10
-1.3927923670985733e-011
 20
2.0360746773688467e-010
  0
INSERT
  8
0
 62
140
  6
CONTINUOUS
  2
TELL_2
 10
2.7521474289851771e-012
 20
0.50311461713267946
 41
1.0
 42
1.0
 50
0.0
  0
LINE
  8
0
 62
50
  6
CONTINUOUS
 10
1.5837104072270038
 20
0.90497737555828794
 11
1.5837104072270038
 21
3.8461538461227236
  0
LINE
  8
0
 62
5
  6
CONTINUOUS
 10
1.6402714931854689
 20
3.9592760182711171
 11
1.6402714931854689
 21
6.900452488835553
  0
LINE
  8
0
 62
50
  6
CONTINUOUS
 10
1.5837104072270038
 20
7.0135746605767313
 11
1.5837104072270038
 21
7.1266968325215174
  0
LINE
  8
0
 62
50
  6
CONTINUOUS
 10
-1.5837104072270038
 20
0.90497737555828794
 11
-1.5837104072270038
 21
3.8461538461227236
  0
LINE
  8
0
 62
5
  6
CONTINUOUS
 10
-1.6402714932133249
 20
3.9592760182711171
 11
-1.6402714932133249
 21
6.900452488835553
  0
LINE
  8
0
 62
50
  6
CONTINUOUS
 10
-1.5837104072270038
 20
7.0135746605767313
 11
-1.5837104072270038
 21
7.1266968325215174
  0
LINE
  8
0
 62
50
  6
CONTINUOUS
 10
-1.5837104072270038
 20
7.1266968325215174
 11
1.5837104072270038
 21
7.1266968325215174
  0
LINE
  8
0
 62
5
  6
CONTINUOUS
 10
-1.2443438914065739
 20
0.90497737576189541
 11
-1.2443438914065739
 21
3.8461538463263314
  0
LINE
  8
0
 62
5
  6
CONTINUOUS
 10
1.2443438913787179
 20
3.8461538463263314
 11
1.2443438913787179
 21
0.90497737576189541
  0
LINE
  8
0
 62
50
  6
CONTINUOUS
 10
-2.319004524868113
 20
3.8461538461227236
 11
-2.319004524868113
 21
7.0135746605767313
  0
LINE
  8
0
 62
50
  6
CONTINUOUS
 10
2.319004524868113
 20
7.0135746605767313
 11
2.319004524868113
 21
3.8461538461227236
  0
LINE
  8
0
 62
50
  6
CONTINUOUS
 10
-2.319004524868113
 20
3.8461538461227236
 11
-1.6402714931993969
 21
3.8461538461227236
  0
LINE
  8
0
 62
50
  6
CONTINUOUS
 10
-1.6402714931993969
 20
3.8461538461227236
 11
1.6402714931993969
 21
3.8461538461227236
  0
LINE
  8
0
 62
50
  6
CONTINUOUS
 10
1.6402714931993969
 20
3.8461538461227236
 11
2.319004524868113
 21
3.8461538461227236
  0
LINE
  8
0
 62
50
  6
CONTINUOUS
 10
-2.319004524868113
 20
7.0135746605767313
 11
-1.6402714931993969
 21
7.0135746605767313
  0
LINE
  8
0
 62
50
  6
CONTINUOUS
 10
-1.6402714931993969
 20
7.0135746605767313
 11
1.6402714931993969
 21
7.0135746605767313
  0
LINE
  8
0
 62
50
  6
CONTINUOUS
 10
1.6402714931993969
 20
7.0135746605767313
 11
2.319004524868113
 21
7.0135746605767313
  0
LINE
  8
0
 62
50
  6
CONTINUOUS
 10
-2.0927601809785408
 20
-1.69683257917179
 11
-2.0927601809811516
 21
-0.33936651583435795
  0
LINE
  8
0
 62
50
  6
CONTINUOUS
 10
-2.0927601809785408
 20
-1.69683257917179
 11
-2.4321266968128987
 21
-1.69683257917179
  0
LINE
  8
0
 62
50
  6
CONTINUOUS
 10
-2.4321266968128987
 20
-1.69683257917179
 11
-2.4321266968155095
 21
-0.33936651583435795
  0
LINE
  8
0
 62
50
  6
CONTINUOUS
 10
2.4321266968128987
 20
-1.69683257917179
 11
2.4321266968102884
 21
-0.33936651583435795
  0
LINE
  8
0
 62
50
  6
CONTINUOUS
 10
2.4321266968128987
 20
-1.69683257917179
 11
2.0927601809785408
 21
-1.69683257917179
  0
LINE
  8
0
 62
50
  6
CONTINUOUS
 10
-1.7533936651467936
 20
0.33936651583435795
 11
1.7533936651415722
 21
0.33936651583435795
  0
LINE
  8
0
 62
50
  6
CONTINUOUS
 10
2.4321266968128987
 20
-0.56561085972392999
 11
2.0927601809785408
 21
-0.56561085972392999
  0
LINE
  8
0
 62
50
  6
CONTINUOUS
 10
2.0927601809785408
 20
-1.69683257917179
 11
2.09276018097593
 21
-0.33936651583435795
  0
LINE
  8
0
 62
50
  6
CONTINUOUS
 10
1.7533936651415722
 20
0
 11
-1.7533936651467936
 21
0
  0
LINE
  8
0
 62
50
  6
CONTINUOUS
 10
-2.0927601809785408
 20
-0.56561085972392999
 11
-2.4321266968128987
 21
-0.56561085972392999
  0
INSERT
  8
0
 62
5
  6
DASHDOT
  2
TELL_3
 10
0
 20
5.4298642533497272
 41
1.0
 42
1.0
 50
0.0
  0
ARC
  8
0
 62
50
  6
CONTINUOUS
 10
-1.7533936651441957
 20
-0.33936651583435795
 40
0.33936651583435795
 50
90
 51
180
  0
ARC
  8
0
 62
50
  6
CONTINUOUS
 10
1.7533936651441828
 20
-0.33936651583435795
 40
0.33936651583435795
 50
0
 51
90
  0
ARC
  8
0
 62
50
  6
CONTINUOUS
 10
-1.7533936651441828
 20
-0.33936651583435795
 40
0.6787330316687159
 50
139.52036446718614
 51
180
  0
ARC
  8
0
 62
50
  6
CONTINUOUS
 10
-1.7533936651441828
 20
-0.33936651583435795
 40
0.6787330316687159
 50
90
 51
139.52036446718614
  0
ARC
  8
0
 62
50
  6
CONTINUOUS
 10
1.7533936651441699
 20
-0.33936651583435795
 40
0.6787330316687159
 50
40.479635532479818
 51
90
  0
ARC
  8
0
 62
50
  6
CONTINUOUS
 10
1.7533936651441699
 20
-0.33936651583435795
 40
0.6787330316687159
 50
0
 51
40.479635532479818
  0
LINE
  8
0
 62
50
  6
CONTINUOUS
 10
-1.5837104072270038
 20
0.90497737555828794
 11
1.5837104072270038
 21
0.90497737555828794
  0
LINE
  8
0
 62
50
  6
CONTINUOUS
 10
-2.2696629517489528
 20
0.10125185870959155
 11
-1.5837104072270038
 21
0.90497737555828794
  0
LINE
  8
0
 62
50
  6
CONTINUOUS
 10
2.269662951755036
 20
0.10125185870959155
 11
1.5837104072270167
 21
0.90497737555828794
  0
LINE
  8
0
 62
5
  6
DASHDOT
 10
0
 20
-0.44083431639940202
 11
0
 21
1.3072451164097842
  0
ENDBLK
  0
BLOCK
  8
0
 62
140
  6
CONTINUOUS
  2
TELL_4
 70
0
 10
14.265770761636171
 20
0.50311461713291095
  0
LINE
  8
0
 62
50
  6
CONTINUOUS
 10
12.199330616070604
 20
0.33936651583435795
 11
12.682060354405927
 21
0.90497737555828794
  0
LINE
  8
0
 62
50
  6
CONTINUOUS
 10
12.682060354405927
 20
0.90497737555828794
 11
15.849481168859935
 21
0.90497737555828794
  0
LINE
  8
0
 62
50
  6
CONTINUOUS
 10
15.849481168859935
 20
0.90497737555828794
 11
16.332210907195272
 21
0.33936651583435795
  0
ARC
  8
0
 62
50
  6
CONTINUOUS
 10
16.332210907195257
 20
-1.1988437940703229
 40
1.5382103099046809
 50
89.999999999758572
 51
122.30660861488229
  0
LINE
  8
0
 62
50
  6
CONTINUOUS
 10
15.510114653025576
 20
0.10125185870959155
 11
13.021426870240285
 21
0.10125185870959155
  0
ARC
  8
0
 62
50
  6
CONTINUOUS
 10
12.199330616070604
 20
-1.1988437940703229
 40
1.5382103099046809
 50
57.693391384965878
 51
90
  0
ENDBLK
  0
BLOCK
  8
0
 62
5
  6
DASHDOT
  2
TELL_5
 70
0
 10
16.528214200544991
 20
5.4298642533497272
  0
LINE
  8
0
 62
50
  6
CONTINUOUS
 10
16.584775286501042
 20
6.5384615384086571
 11
17.245807467326433
 21
6.538461538408658
  0
ARC
  8
0
 62
50
  6
CONTINUOUS
 10
16.7657707616127
 20
6.2613122171439297
 40
0.55429864252945138
 50
317.54026094004342
 51
30
  0
ARC
  8
0
 62
50
  6
CONTINUOUS
 10
16.528214200528652
 20
5.429864253349753
 40
0.79185520361350192
 50
324.72863805591317
 51
35.271361944086834
  0
ARC
  8
0
 62
50
  6
CONTINUOUS
 10
16.7657707616127
 20
4.5984162895555771
 40
0.55429864252945138
 50
330
 51
42.459739059956519
  0
LINE
  8
0
 62
50
  6
CONTINUOUS
 10
17.245807467326436
 20
4.3212669682908533
 11
16.584775286501042
 21
4.3212669682908498
  0
LINE
  8
0
 62
50
  6
CONTINUOUS
 10
17.174705628608368
 20
5.887120742542888
 11
16.584775286501042
 21
5.8871207425428871
  0
LINE
  8
0
 62
50
  6
CONTINUOUS
 10
17.174705628608368
 20
4.9726077641566233
 11
16.584775286501042
 21
4.9726077641566198
  0
LINE
  8
0
 62
50
  6
CONTINUOUS
 10
17.320069404142153
 20
6.2613122171439342
 11
17.320069404142153
 21
4.598416289555578
  0
LINE
  8
0
 62
5
  6
CONTINUOUS
 10
16.528214200528652
 20
5.9954751130736836
 11
14.369843159822132
 21
5.9954751130736721
  0
LINE
  8
0
 62
5
  6
CONTINUOUS
 10
14.369843159822132
 20
5.9954751130736721
 11
14.265770761632931
 21
5.8914027148844701
  0
LINE
  8
0
 62
5
  6
CONTINUOUS
 10
14.265770761632931
 20
5.8914027148844701
 11
14.265770761632931
 21
4.9683257918150172
  0
LINE
  8
0
 62
5
  6
CONTINUOUS
 10
14.265770761632931
 20
4.9683257918150172
 11
14.369843159822135
 21
4.8642533936258125
  0
LINE
  8
0
 62
5
  6
CONTINUOUS
 10
14.369843159822135
 20
4.8642533936258125
 11
16.528214200528652
 21
4.8642533936258232
  0
LINE
  8
0
 62
5
  6
CONTINUOUS
 10
14.369843159822132
 20
5.9954751130736721
 11
14.369843159822135
 21
4.8642533936258125
  0
LINE
  8
0
 62
50
  6
CONTINUOUS
 10
16.584775286501042
 20
4.3212669682908498
 11
16.584775286501042
 21
6.5384615384086571
  0
LINE
  8
0
 62
50
  6
CONTINUOUS
 10
16.584775286501042
 20
6.3914027148804342
 11
16.528214200528652
 21
6.3914027148804342
  0
LINE
  8
0
 62
50
  6
CONTINUOUS
 10
16.528214200528652
 20
4.4683257918190726
 11
16.584775286501042
 21
4.4683257918190726
  0
LINE
  8
0
 62
5
  6
CONTINUOUS
 10
14.265770761632931
 20
5.8914027148844701
 11
16.528214200528652
 21
5.8914027148844781
  0
LINE
  8
0
 62
5
  6
CONTINUOUS
 10
14.265770761632931
 20
4.9683257918150172
 11
16.528214200528652
 21
4.9683257918150288
  0
ENDBLK
  0
BLOCK
  8
249
 62
5
  6
DASHDOT
  2
TELL_6
 70
0
 10
14.26577076164927
 20
5.4298642533497272
  0
CIRCLE
  8
249
 62
50
  6
CONTINUOUS
 10
14.265770761632931
 20
5.429864253349753
 40
0.46153846153472688
  0
ARC
  8
249
 62
5
  6
CONTINUOUS
 10
14.265770761632931
 20
5.429864253349753
 40
0.56561085972392999
 50
175.00000000000003
 51
90
  0
LINE
  8
249
 62
5
  6
DASHDOT
 10
14.265770761632931
 20
6.221719456963255
 11
14.265770761632931
 21
4.6380090497362518
  0
ENDBLK
  0
BLOCK
  8
0
 62
5
  6
DASHDOT
  2
3_51_CME
 70
0
 10
14.26577076164927
 20
2.0360746773704023e-010
  0
INSERT
  8
0
 62
140
  6
CONTINUOUS
  2
TELL_4
 10
14.265770761636171
 20
0.50311461713291095
 41
1.0
 42
1.0
 50
0.0
  0
LINE
  8
0
 62
50
  6
CONTINUOUS
 10
12.199330616070604
 20
0.33936651583435795
 11
12.682060354405927
 21
0.90497737555828794
  0
LINE
  8
0
 62
50
  6
CONTINUOUS
 10
15.849481168859935
 20
0.90497737555828794
 11
16.332210907195272
 21
0.33936651583435795
  0
LINE
  8
0
 62
50
  6
CONTINUOUS
 10
12.682060354405927
 20
7.1266968325215174
 11
15.849481168859935
 21
7.1266968325215174
  0
LINE
  8
0
 62
50
  6
CONTINUOUS
 10
12.682060354405927
 20
0.90497737555828794
 11
12.682060354405927
 21
7.1266968325215174
  0
LINE
  8
0
 62
50
  6
CONTINUOUS
 10
15.849481168859935
 20
0.90497737555828794
 11
15.849481168859935
 21
3.8461538461227236
  0
LINE
  8
0
 62
5
  6
CONTINUOUS
 10
15.849481168862352
 20
6.900452488835553
 11
15.849481168862352
 21
3.9592760182711171
  0
LINE
  8
0
 62
50
  6
CONTINUOUS
 10
15.849481168859935
 20
7.0135746605767313
 11
15.849481168859935
 21
7.1266968325215174
  0
LINE
  8
0
 62
50
  6
CONTINUOUS
 10
15.510114653025576
 20
7.0135746605767313
 11
15.510114653025576
 21
3.8461538461227236
  0
LINE
  8
0
 62
5
  6
CONTINUOUS
 10
13.021426870242703
 20
0.90497737576189541
 11
13.021426870242703
 21
7.1266968327251252
  0
LINE
  8
0
 62
50
  6
CONTINUOUS
 10
16.528214200528652
 20
7.0135746605767313
 11
16.528214200528652
 21
3.8461538461227236
  0
LINE
  8
0
 62
50
  6
CONTINUOUS
 10
15.510114653025576
 20
3.8461538461227236
 11
16.528214200528652
 21
3.8461538461227236
  0
LINE
  8
0
 62
50
  6
CONTINUOUS
 10
8.6096621643936313
 20
0.33936651583435795
 11
12.199330616070604
 21
0.33936651583435795
  0
LINE
  8
0
 62
50
  6
CONTINUOUS
 10
16.332210907195272
 20
0.33936651583435795
 11
19.921879358872218
 21
0.33936651583435795
  0
LINE
  8
0
 62
50
  6
CONTINUOUS
 10
15.510114653025576
 20
0.10125185870959155
 11
13.021426870240285
 21
0.10125185870959155
  0
LINE
  8
0
 62
50
  6
CONTINUOUS
 10
19.921879358872218
 20
-0.56561085972392999
 11
19.921879358872218
 21
0.33936651583435795
  0
LINE
  8
0
 62
50
  6
CONTINUOUS
 10
8.6096621643936313
 20
-0.56561085972392999
 11
8.6096621643936313
 21
0.33936651583435795
  0
LINE
  8
0
 62
50
  6
CONTINUOUS
 10
15.510114653025576
 20
7.0135746605767313
 11
16.528214200528652
 21
7.0135746605767313
  0
LINE
  8
0
 62
5
  6
CONTINUOUS
 10
8.6096621643960489
 20
-0.33936651563075049
 11
19.921879358874648
 21
-0.33936651563075049
  0
LINE
  8
0
 62
50
  6
CONTINUOUS
 10
19.921879358872218
 20
-0.56561085972392999
 11
19.26876819463584
 21
-1.69683257917179
  0
LINE
  8
0
 62
50
  6
CONTINUOUS
 10
19.26876819463584
 20
-1.69683257917179
 11
9.262773328630006
 21
-1.69683257917179
  0
LINE
  8
0
 62
50
  6
CONTINUOUS
 10
9.262773328630006
 20
-1.69683257917179
 11
8.6096621643936313
 21
-0.56561085972392999
  0
LINE
  8
0
 62
5
  6
CONTINUOUS
 10
15.510114653023159
 20
3.6199095022331518
 11
15.510114653023159
 21
0.90497737555828794
  0
LINE
  8
0
 62
5
  6
DASHDOT
 10
13.58703772996415
 20
5.429864253349753
 11
17.609817476491347
 21
5.429864253349753
  0
LINE
  8
0
 62
50
  6
CONTINUOUS
 10
12.682060354405927
 20
0.90497737555828794
 11
15.849481168859935
 21
0.90497737555828794
  0
ARC
  8
0
 62
50
  6
CONTINUOUS
 10
12.199330616070604
 20
-1.1988437940703229
 40
1.5382103099046809
 50
57.693391384965878
 51
90
  0
ARC
  8
0
 62
50
  6
CONTINUOUS
 10
16.332210907195257
 20
-1.1988437940703229
 40
1.5382103099046809
 50
89.999999999758572
 51
122.30660861488229
  0
LINE
  8
0
 62
5
  6
DASHDOT
 10
10.080250399675862
 20
-0.65146980382186348
 11
10.080250399675862
 21
0.7846905854022338
  0
LINE
  8
0
 62
5
  6
DASHDOT
 10
18.45129112359
 20
-0.65146980382186348
 11
18.45129112359
 21
0.7846905854022338
  0
INSERT
  8
0
 62
5
  6
DASHDOT
  2
TELL_5
 10
16.528214200544991
 20
5.4298642533497272
 41
1.0
 42
1.0
 50
0.0
  0
INSERT
  8
249
 62
5
  6
DASHDOT
  2
TELL_6
 10
14.26577076164927
 20
5.4298642533497272
 41
1.0
 42
1.0
 50
0.0
  0
ENDBLK
  0
BLOCK
  8
0
 62
5
  6
DASHDOT
  2
TELL_8
 70
0
 10
-1.3927923670985733e-011
 20
-14.140271492894641
  0
LINE
  8
0
 62
50
  6
CONTINUOUS
 10
1.1085972850562869
 20
-14.196832579070639
 11
1.1085972850562882
 21
-14.85786475989603
  0
ARC
  8
0
 62
50
  6
CONTINUOUS
 10
0.83144796379156938
 20
-14.37782805418229
 40
0.55429864252945138
 50
227.54026094004348
 51
300
  0
ARC
  8
0
 62
50
  6
CONTINUOUS
 10
-2.6106819069342226e-012
 20
-14.140271493098249
 40
0.79185520361350192
 50
234.72863805591317
 51
305.27136194408683
  0
ARC
  8
0
 62
50
  6
CONTINUOUS
 10
-0.83144796379678987
 20
-14.37782805418229
 40
0.55429864252945138
 50
240
 51
312.45973905995652
  0
LINE
  8
0
 62
50
  6
CONTINUOUS
 10
-1.1085972850615071
 20
-14.85786475989603
 11
-1.1085972850615082
 21
-14.196832579070646
  0
LINE
  8
0
 62
50
  6
CONTINUOUS
 10
0.45725648919052408
 20
-14.78676292117796
 11
0.45725648919052303
 21
-14.196832579070643
  0
LINE
  8
0
 62
50
  6
CONTINUOUS
 10
-0.45725648919574341
 20
-14.78676292117796
 11
-0.45725648919574441
 21
-14.196832579070643
  0
LINE
  8
0
 62
50
  6
CONTINUOUS
 10
0.83144796379157015
 20
-14.932126696711752
 11
-0.83144796379678909
 21
-14.932126696711752
  0
LINE
  8
0
 62
5
  6
CONTINUOUS
 10
0.5656108597213193
 20
-14.140271493098249
 11
0.56561085972131608
 21
-11.981900452391741
  0
LINE
  8
0
 62
5
  6
CONTINUOUS
 10
0.56561085972131608
 20
-11.981900452391741
 11
0.46153846153211736
 21
-11.87782805420253
  0
LINE
  8
0
 62
5
  6
CONTINUOUS
 10
0.46153846153211736
 20
-11.87782805420253
 11
-0.46153846153734557
 21
-11.87782805420253
  0
LINE
  8
0
 62
5
  6
CONTINUOUS
 10
-0.46153846153734557
 20
-11.87782805420253
 11
-0.5656108597265439
 21
-11.981900452391741
  0
LINE
  8
0
 62
5
  6
CONTINUOUS
 10
-0.5656108597265439
 20
-11.981900452391741
 11
-0.56561085972654068
 21
-14.140271493098249
  0
LINE
  8
0
 62
5
  6
CONTINUOUS
 10
0.56561085972131608
 20
-11.981900452391741
 11
-0.5656108597265439
 21
-11.981900452391741
  0
LINE
  8
0
 62
50
  6
CONTINUOUS
 10
-1.1085972850615082
 20
-14.196832579070646
 11
1.1085972850562869
 21
-14.196832579070639
  0
LINE
  8
0
 62
50
  6
CONTINUOUS
 10
0.96153846152807021
 20
-14.196832579070643
 11
0.96153846152807021
 21
-14.140271493098249
  0
LINE
  8
0
 62
50
  6
CONTINUOUS
 10
-0.96153846153329159
 20
-14.140271493098249
 11
-0.96153846153329159
 21
-14.196832579070643
  0
LINE
  8
0
 62
5
  6
CONTINUOUS
 10
0.46153846153211736
 20
-11.87782805420253
 11
0.4615384615321208
 21
-14.140271493098249
  0
LINE
  8
0
 62
5
  6
CONTINUOUS
 10
-0.46153846153734557
 20
-11.87782805420253
 11
-0.46153846153734218
 21
-14.140271493098249
  0
ENDBLK
  0
BLOCK
  8
0
 62
5
  6
DASHDOT
  2
TELL_7
 70
0
 10
-1.3927923671041144e-011
 20
-11.877828053976286
  0
LINE
  8
0
 62
50
  6
CONTINUOUS
 10
-2.4321266968128858
 20
-17.533936651440516
 11
-2.4321266968128987
 21
-6.2217194569619432
  0
LINE
  8
0
 62
50
  6
CONTINUOUS
 10
2.4321266968128987
 20
-6.2217194569619432
 11
2.4321266968129116
 21
-17.533936651440516
  0
LINE
  8
0
 62
50
  6
CONTINUOUS
 10
-2.4321266968128987
 20
-6.2217194569619432
 11
2.4321266968128987
 21
-6.2217194569619432
  0
LINE
  8
0
 62
50
  6
CONTINUOUS
 10
-2.4321266968128858
 20
-17.533936651440516
 11
2.4321266968129116
 21
-17.533936651440516
  0
LINE
  8
0
 62
5
  6
CONTINUOUS
 10
-1.7533936651581108
 20
-17.533936651238221
 11
-1.7533936651581108
 21
-14.117932268912902
  0
LINE
  8
0
 62
5
  6
CONTINUOUS
 10
-1.7533936651581108
 20
-13.781496281359074
 11
-1.7533936651581108
 21
-6.2217194567596223
  0
LINE
  8
0
 62
5
  6
CONTINUOUS
 10
1.7533936651302551
 20
-14.117932268912902
 11
1.7533936651302551
 21
-17.533936651238221
  0
LINE
  8
0
 62
50
  6
CONTINUOUS
 10
1.6402714931994227
 20
-14.140271493098249
 11
-1.640271493204644
 21
-14.140271493096938
  0
LINE
  8
0
 62
50
  6
CONTINUOUS
 10
-2.31900452487336
 20
-13.461538461429534
 11
-2.3190045248707363
 21
-13.122171945593889
  0
LINE
  8
0
 62
50
  6
CONTINUOUS
 10
-2.3190045248707363
 20
-13.122171945593889
 11
-1.9796380090363783
 21
-13.122171945593889
  0
LINE
  8
0
 62
50
  6
CONTINUOUS
 10
-1.9796380090363783
 20
-13.122171945593889
 11
-1.979638009039002
 21
-13.461538461429534
  0
LINE
  8
0
 62
50
  6
CONTINUOUS
 10
-1.640271493204644
 20
-13.80090497726389
 11
1.6402714931994227
 21
-13.80090497726389
  0
LINE
  8
0
 62
50
  6
CONTINUOUS
 10
1.9796380090337806
 20
-13.461538461429534
 11
1.9796380090364041
 21
-13.122171945593863
  0
LINE
  8
0
 62
50
  6
CONTINUOUS
 10
1.9796380090364041
 20
-13.122171945593863
 11
2.319004524870762
 21
-13.122171945593863
  0
LINE
  8
0
 62
50
  6
CONTINUOUS
 10
2.319004524870762
 20
-13.122171945593863
 11
2.3190045248681388
 21
-13.461538461429534
  0
LINE
  8
0
 62
50
  6
CONTINUOUS
 10
1.5837104072243933
 20
-10.633484162809884
 11
1.5837104072270167
 21
-13.122171945595175
  0
LINE
  8
0
 62
50
  6
CONTINUOUS
 10
1.2443438913900353
 20
-13.461538461429534
 11
-1.2443438913952567
 21
-13.461538461428221
  0
LINE
  8
0
 62
50
  6
CONTINUOUS
 10
-1.5837104072296146
 20
-13.122171945595175
 11
-1.5837104072296146
 21
-10.633484162809884
  0
LINE
  8
0
 62
50
  6
CONTINUOUS
 10
-1.2443438913952567
 20
-10.294117646975526
 11
1.2443438913900353
 21
-10.294117646975526
  0
LINE
  8
0
 62
50
  6
CONTINUOUS
 10
-1.3009049773676495
 20
-10.633484162809884
 11
-1.3009049773676495
 21
-13.122171945595175
  0
LINE
  8
0
 62
50
  6
CONTINUOUS
 10
-1.2443438913952567
 20
-13.178733031567567
 11
1.2443438913900353
 21
-13.178733031567567
  0
LINE
  8
0
 62
50
  6
CONTINUOUS
 10
1.3009049773624282
 20
-13.122171945595175
 11
1.3009049773650518
 21
-10.633484162809884
  0
LINE
  8
0
 62
50
  6
CONTINUOUS
 10
1.2443438913900353
 20
-10.57692307683749
 11
-1.2443438913952567
 21
-10.576923076836204
  0
CIRCLE
  8
0
 62
50
  6
CONTINUOUS
 10
-5.1442008018414523e-014
 20
-7.6923076922441354
 40
0.56561085972387537
  0
CIRCLE
  8
0
 62
50
  6
CONTINUOUS
 10
1.2860502004603631e-014
 20
-16.063348416158323
 40
0.56561085972393677
  0
ARC
  8
0
 62
50
  6
CONTINUOUS
 10
-1.2443438913926459
 20
-10.633484162808598
 40
0.056561085972392997
 50
90
 51
180.00000000130277
  0
ARC
  8
0
 62
50
  6
CONTINUOUS
 10
1.2443438913926717
 20
-10.633484162808598
 40
0.056561085972392997
 50
359.99999999869726
 51
90
  0
ARC
  8
0
 62
50
  6
CONTINUOUS
 10
-1.2443438913952567
 20
-13.122171945593889
 40
0.056561085972392997
 50
180.00000000130277
 51
270
  0
ARC
  8
0
 62
50
  6
CONTINUOUS
 10
1.2443438913926717
 20
-13.122171945595175
 40
0.056561085972392997
 50
270
 51
0
  0
ARC
  8
0
 62
50
  6
CONTINUOUS
 10
-1.2443438913926459
 20
-13.122171945593863
 40
0.33936651583435795
 50
180.00000000022146
 51
270
  0
ARC
  8
0
 62
50
  6
CONTINUOUS
 10
1.2443438913926717
 20
-13.122171945593863
 40
0.33936651583435795
 50
270
 51
359.99999999977854
  0
ARC
  8
0
 62
50
  6
CONTINUOUS
 10
-1.2443438913952567
 20
-10.633484162808598
 40
0.33936651583435795
 50
90
 51
180.00000000021711
  0
ARC
  8
0
 62
50
  6
CONTINUOUS
 10
1.2443438913926717
 20
-10.633484162809884
 40
0.33936651583435795
 50
0
 51
90
  0
ARC
  8
0
 62
50
  6
CONTINUOUS
 10
-1.6402714932020204
 20
-13.461538461428221
 40
0.33936651583435795
 50
180.00000000022146
 51
270
  0
ARC
  8
0
 62
50
  6
CONTINUOUS
 10
1.6402714932020461
 20
-13.461538461429534
 40
0.33936651583435795
 50
270
 51
0
  0
ARC
  8
0
 62
50
  6
CONTINUOUS
 10
-1.6402714932020075
 20
-13.461538461428221
 40
0.6787330316687159
 50
180.00000000011073
 51
270
  0
ARC
  8
0
 62
50
  6
CONTINUOUS
 10
1.6402714932020332
 20
-13.461538461428221
 40
0.6787330316687159
 50
270
 51
359.99999999988927
  0
INSERT
  8
0
 62
5
  6
DASHDOT
  2
TELL_8
 10
-1.3927923670985733e-011
 20
-14.140271492894641
 41
1.0
 42
1.0
 50
0.0
  0
LINE
  8
0
 62
5
  6
DASHDOT
 10
-0.6787330316687159
 20
-16.063348416158323
 11
0.67873303166874166
 21
-16.063348416158323
  0
LINE
  8
0
 62
5
  6
DASHDOT
 10
-0.67873303166870314
 20
-7.6923076922441354
 11
0.67873303166860022
 21
-7.6923076922441354
  0
LINE
  8
0
 62
5
  6
CONTINUOUS
 10
1.7533936651581108
 20
-13.781496281561395
 11
1.7533936651581108
 21
-6.2217194569619432
  0
LINE
  8
0
 62
5
  6
DASHDOT
 10
0
 20
-17.873303167274877
 11
0
 21
-5.8823529411275857
  0
ENDBLK
  0
ENDSEC
  0
SECTION
  2
ENTITIES
  0
INSERT
  8
0
 62
5
  6
DASHDOT
  2
TELL_1
 10
-1.3927923670985733e-011
 20
2.0360746773688467e-010
 41
1.0
 42
1.0
 50
0.0
  0
INSERT
  8
0
 62
5
  6
DASHDOT
  2
3_51_CME
 10
14.26577076164927
 20
2.0360746773704023e-010
 41
1.0
 42
1.0
 50
0.0
  0
INSERT
  8
0
 62
5
  6
DASHDOT
  2
TELL_7
 10
-1.3927923671041144e-011
 20
-11.877828053976286
 41
1.0
 42
1.0
 50
0.0
  0
ENDSEC
  0
EOF
