  0
SECTION
  2
HEADER
  9
$ACADVER
  1
AC1009
  9
$EXTMIN
 10
-2.4431818181639842
 20
-17.840909090762757
  9
$EXTMAX
 10
18.352272727123527
 20
7.1590909092372401
  9
$TEXTSTYLE
  7
STANDARD
  9
$DIMLFAC
 40
1
  9
$REGENMODE
 70
1
  9
$DRAGMODE
 70
2
  9
$DIMASO
 70
1
  9
$LTSCALE
 40
1.0000000000
  0
ENDSEC
  0
SECTION
  2
TABLES
  0
TABLE
  2
LTYPE
 70
2
  0
LTYPE
  2
CONTINUOUS
 70
64
  3
CONTINUOUS
 72
65
 73
0
 40
0.0000000000
  0
LTYPE
  2
DASHDOT
 70
64
  3
DASHDOT
 72
65
 73
4
 40
1.0000000000
 49
0.5000000000
 49
-0.2500000000
 49
0.0000000000
 49
-0.2500000000
  0
ENDTAB
  0
TABLE
  2
LAYER
 70
2
  0
LAYER
  2
0
 70
0
 62
2
  6
CONTINUOUS
  0
LAYER
  2
249
 70
0
 62
2
  6
CONTINUOUS
  0
ENDTAB
  0
TABLE
  2
STYLE
 70
0
  0
STYLE
  2
Standard
 70
0
 40
0
 41
1
 50
0
 71
0
 42
2.5
  3
txt
  4

  0
ENDTAB
  0
ENDSEC
  0
SECTION
  2
BLOCKS
  0
BLOCK
  8
0
 62
140
  6
CONTINUOUS
  2
TELL_2
 70
0
 10
-9.9153009034807894e-013
 20
0.48345951659040137
  0
LINE
  8
0
 62
50
  6
CONTINUOUS
 10
-1.7613636363513452
 20
0.34090909090631938
 11
1.7613636363472887
 21
0.34090909090631938
  0
ARC
  8
0
 62
50
  6
CONTINUOUS
 10
1.761363636349317
 20
-0.34090909090631938
 40
0.68181818181263876
 50
35.544586596460725
 51
90
  0
LINE
  8
0
 62
50
  6
CONTINUOUS
 10
2.3161341218768685
 20
0.055456575408629527
 11
1.7045454545310157
 21
0.91146245777219903
  0
LINE
  8
0
 62
50
  6
CONTINUOUS
 10
1.7045454545310157
 20
0.91146245777219903
 11
-1.7045454545315939
 21
0.91146245777219903
  0
LINE
  8
0
 62
50
  6
CONTINUOUS
 10
-1.7045454545315939
 20
0.91146245777219903
 11
-2.3161341218809248
 21
0.055456575408629527
  0
ARC
  8
0
 62
50
  6
CONTINUOUS
 10
-1.761363636349317
 20
-0.34090909090502752
 40
0.68181818181263876
 50
90
 51
144.45541340382587
  0
ENDBLK
  0
BLOCK
  8
0
 62
5
  6
DASHDOT
  2
TELL_3
 70
0
 10
0
 20
5.4545454545024024
  0
LINE
  8
0
 62
50
  6
CONTINUOUS
 10
0.55766787364453518
 20
6.4204545454036408
 11
1.1153357472890737
 21
5.4545454545024024
  0
LINE
  8
0
 62
50
  6
CONTINUOUS
 10
1.1153357472890737
 20
5.4545454545024024
 11
0.55766787364453518
 21
4.4886363636011639
  0
LINE
  8
0
 62
50
  6
CONTINUOUS
 10
0.55766787364453518
 20
4.4886363636011639
 11
-0.55766787364453518
 21
4.4886363636011639
  0
LINE
  8
0
 62
50
  6
CONTINUOUS
 10
-0.55766787364453518
 20
4.4886363636011639
 11
-1.1153357472890704
 21
5.4545454545024024
  0
LINE
  8
0
 62
50
  6
CONTINUOUS
 10
-1.1153357472890704
 20
5.4545454545024024
 11
-0.55766787364453518
 21
6.4204545454036408
  0
LINE
  8
0
 62
50
  6
CONTINUOUS
 10
-0.55766787364453518
 20
6.4204545454036408
 11
0.55766787364453518
 21
6.4204545454036408
  0
CIRCLE
  8
0
 62
50
  6
CONTINUOUS
 10
0
 20
5.4545454545024024
 40
0.96590909090123833
  0
LINE
  8
0
 62
5
  6
DASHDOT
 10
-1.2857902927422333
 20
5.4545454545024024
 11
1.2857902927422333
 21
5.4545454545024024
  0
LINE
  8
0
 62
5
  6
DASHDOT
 10
0
 20
4.3181818181480045
 11
0
 21
6.5909090908568002
  0
ENDBLK
  0
BLOCK
  8
0
 62
5
  6
CONTINUOUS
  2
TELL_1
 70
0
 10
-3.6121408893983433e-011
 20
2.0453295622659004e-010
  0
INSERT
  8
0
 62
140
  6
CONTINUOUS
  2
TELL_2
 10
-9.9153009034807894e-013
 20
0.48345951659040137
 41
1.0
 42
1.0
 50
0.0
  0
LINE
  8
0
 62
50
  6
CONTINUOUS
 10
-1.704545454531597
 20
7.1590909090339991
 11
1.704545454531597
 21
7.1590909090339991
  0
LINE
  8
0
 62
50
  6
CONTINUOUS
 10
1.704545454531597
 20
7.1590909090339991
 11
1.704545454531597
 21
7.0454545453985595
  0
LINE
  8
0
 62
50
  6
CONTINUOUS
 10
1.704545454531597
 20
3.8636363636062452
 11
1.704545454531597
 21
0.91146245777219903
  0
LINE
  8
0
 62
50
  6
CONTINUOUS
 10
-1.704545454531597
 20
0.91146245777219903
 11
-1.704545454531597
 21
3.8636363636062452
  0
LINE
  8
0
 62
50
  6
CONTINUOUS
 10
-1.704545454531597
 20
7.0454545453985595
 11
-1.704545454531597
 21
7.1590909090339991
  0
LINE
  8
0
 62
50
  6
CONTINUOUS
 10
-2.3295454545265128
 20
3.8636363636062452
 11
-2.3295454545265128
 21
7.0454545453985595
  0
LINE
  8
0
 62
50
  6
CONTINUOUS
 10
-2.3295454545265128
 20
3.8636363636062452
 11
2.3295454545265257
 21
3.8636363636062452
  0
LINE
  8
0
 62
50
  6
CONTINUOUS
 10
2.3295454545265257
 20
7.0454545453985595
 11
2.3295454545265257
 21
3.8636363636062452
  0
LINE
  8
0
 62
5
  6
CONTINUOUS
 10
-1.3636363636613991
 20
0.90909090928805136
 11
-1.3636363636613991
 21
3.8636363638094862
  0
LINE
  8
0
 62
5
  6
CONTINUOUS
 10
1.3636363635891562
 20
3.8636363638094862
 11
1.3636363635891562
 21
0.90909090928805136
  0
LINE
  8
0
 62
50
  6
CONTINUOUS
 10
-2.3295454545265128
 20
7.0454545453985595
 11
2.3295454545265257
 21
7.0454545453985595
  0
LINE
  8
0
 62
5
  6
CONTINUOUS
 10
-1.6477272727499921
 20
3.9772727272416848
 11
-1.6477272727499921
 21
6.9318181817631199
  0
LINE
  8
0
 62
5
  6
CONTINUOUS
 10
1.6477272726777654
 20
6.9318181817631199
 11
1.6477272726777654
 21
3.9772727272416848
  0
LINE
  8
0
 62
50
  6
CONTINUOUS
 10
-2.1022727272556363
 20
-1.7045454545303051
 11
-2.1022727272576645
 21
-0.34090909090631938
  0
LINE
  8
0
 62
50
  6
CONTINUOUS
 10
-2.1022727272556363
 20
-1.7045454545303051
 11
-2.4431818181619556
 21
-1.7045454545303051
  0
LINE
  8
0
 62
50
  6
CONTINUOUS
 10
2.4431818181619556
 20
-1.7045454545303051
 11
2.4431818181599274
 21
-0.34090909090631938
  0
LINE
  8
0
 62
50
  6
CONTINUOUS
 10
2.4431818181619556
 20
-1.7045454545303051
 11
2.1022727272556363
 21
-1.7045454545303051
  0
LINE
  8
0
 62
50
  6
CONTINUOUS
 10
2.1022727272556363
 20
-1.7045454545303051
 11
2.1022727272536081
 21
-0.34090909090631938
  0
LINE
  8
0
 62
50
  6
CONTINUOUS
 10
-1.7613636363513452
 20
0.34090909090631938
 11
1.7613636363472887
 21
0.34090909090631938
  0
LINE
  8
0
 62
50
  6
CONTINUOUS
 10
2.4431818181619556
 20
-0.56818181817590707
 11
2.1022727272556363
 21
-0.56818181817590707
  0
LINE
  8
0
 62
50
  6
CONTINUOUS
 10
1.7613636363472887
 20
0
 11
-1.7613636363513452
 21
1.2918958831896794e-012
  0
LINE
  8
0
 62
50
  6
CONTINUOUS
 10
-2.1022727272556363
 20
-0.56818181817590707
 11
-2.4431818181619556
 21
-0.56818181817590707
  0
LINE
  8
0
 62
50
  6
CONTINUOUS
 10
-2.4431818181619556
 20
-1.7045454545303051
 11
-2.4431818181639842
 21
-0.34090909090631938
  0
ARC
  8
0
 62
50
  6
CONTINUOUS
 10
-1.761363636349317
 20
-0.34090909090502752
 40
0.34090909090631938
 50
90
 51
180.00000000021711
  0
ARC
  8
0
 62
50
  6
CONTINUOUS
 10
1.7613636363493201
 20
-0.34090909090502752
 40
0.34090909090631938
 50
359.99999999978286
 51
90
  0
ARC
  8
0
 62
50
  6
CONTINUOUS
 10
-1.761363636349317
 20
-0.34090909090502752
 40
0.68181818181263876
 50
144.45541340382587
 51
180.00000000010857
  0
ARC
  8
0
 62
50
  6
CONTINUOUS
 10
-1.761363636349317
 20
-0.34090909090502752
 40
0.68181818181263876
 50
90
 51
144.45541340382587
  0
ARC
  8
0
 62
50
  6
CONTINUOUS
 10
1.761363636349317
 20
-0.34090909090631938
 40
0.68181818181263876
 50
35.544586596460725
 51
90
  0
ARC
  8
0
 62
50
  6
CONTINUOUS
 10
1.761363636349317
 20
-0.34090909090631938
 40
0.68181818181263876
 50
0
 51
35.544586596460725
  0
LINE
  8
0
 62
50
  6
CONTINUOUS
 10
-2.3161341218809248
 20
0.055456575408629527
 11
-1.7045454545315939
 21
0.91146245777219903
  0
LINE
  8
0
 62
50
  6
CONTINUOUS
 10
2.3161341218768685
 20
0.055456575408629527
 11
1.7045454545310157
 21
0.91146245777219903
  0
LINE
  8
0
 62
50
  6
CONTINUOUS
 10
-1.7045454545315939
 20
0.91146245777219903
 11
1.7045454545310157
 21
0.91146245777219903
  0
LINE
  8
0
 62
5
  6
DASHDOT
 10
0
 20
-0.19177850110787265
 11
0
 21
1.1709086304038883
  0
INSERT
  8
0
 62
5
  6
DASHDOT
  2
TELL_3
 10
0
 20
5.4545454545024024
 41
1.0
 42
1.0
 50
0.0
  0
ENDBLK
  0
BLOCK
  8
0
 62
140
  6
CONTINUOUS
  2
TELL_4
 70
0
 10
12.670454545351538
 20
0.48382367404355858
  0
LINE
  8
0
 62
50
  6
CONTINUOUS
 10
14.374999999883135
 20
0.9114624577722249
 11
14.783775013148809
 21
0.34090909090761129
  0
ARC
  8
0
 62
50
  6
CONTINUOUS
 10
14.783775013148809
 20
-0.78841908899228952
 40
1.1293281798999009
 50
90.000000000376218
 51
131.59277645753176
  0
LINE
  8
0
 62
50
  6
CONTINUOUS
 10
14.034090908976816
 20
0.056184890318638783
 11
11.306818181726261
 21
0.056184890318638783
  0
ARC
  8
0
 62
50
  6
CONTINUOUS
 10
10.557134077554274
 20
-0.78841908899226365
 40
1.1293281798998749
 50
48.407223542190785
 51
90
  0
LINE
  8
0
 62
50
  6
CONTINUOUS
 10
10.557134077554274
 20
0.34090909090761129
 11
10.965909090819942
 21
0.9114624577722249
  0
LINE
  8
0
 62
50
  6
CONTINUOUS
 10
10.965909090819942
 20
0.9114624577722249
 11
14.374999999883135
 21
0.9114624577722249
  0
ENDBLK
  0
BLOCK
  8
0
 62
5
  6
DASHDOT
  2
TELL_5
 70
0
 10
14.943181818024213
 20
5.4545454547056433
  0
LINE
  8
0
 62
50
  6
CONTINUOUS
 10
14.999999999878053
 20
6.5681818181297071
 11
15.664036872434441
 21
6.568181818129708
  0
ARC
  8
0
 62
50
  6
CONTINUOUS
 10
15.181818181694748
 20
6.2897727272228749
 40
0.55681818181365506
 50
317.54026094004342
 51
30
  0
ARC
  8
0
 62
50
  6
CONTINUOUS
 10
14.943181818060333
 20
5.4545454545024024
 40
0.79545454544807859
 50
324.72863805591317
 51
35.271361944086834
  0
ARC
  8
0
 62
50
  6
CONTINUOUS
 10
15.181818181694773
 20
4.6193181817819298
 40
0.55681818181365506
 50
330
 51
42.459739059956519
  0
LINE
  8
0
 62
50
  6
CONTINUOUS
 10
15.664036872434441
 20
4.3409090908750985
 11
14.999999999878053
 21
4.3409090908750976
  0
LINE
  8
0
 62
50
  6
CONTINUOUS
 10
15.592611843540382
 20
5.9138803822827484
 11
14.999999999878053
 21
5.9138803822827475
  0
LINE
  8
0
 62
50
  6
CONTINUOUS
 10
15.592611843540382
 20
4.9952105267220581
 11
14.999999999878053
 21
4.9952105267220572
  0
LINE
  8
0
 62
50
  6
CONTINUOUS
 10
15.738636363508412
 20
6.2897727272228758
 11
15.738636363508412
 21
4.6193181817819307
  0
LINE
  8
0
 62
5
  6
CONTINUOUS
 10
14.943181818060333
 20
6.0227272726796013
 11
12.774999999896151
 21
6.0227272726795995
  0
LINE
  8
0
 62
5
  6
CONTINUOUS
 10
12.774999999896151
 20
6.0227272726795995
 11
12.670454545351538
 21
5.9181818181349852
  0
LINE
  8
0
 62
5
  6
CONTINUOUS
 10
12.670454545351538
 20
5.9181818181349852
 11
12.670454545351538
 21
4.990909090869815
  0
LINE
  8
0
 62
5
  6
CONTINUOUS
 10
12.670454545351538
 20
4.990909090869815
 11
12.774999999896151
 21
4.8863636363252017
  0
LINE
  8
0
 62
5
  6
CONTINUOUS
 10
12.774999999896151
 20
4.8863636363252017
 11
14.943181818060333
 21
4.8863636363252034
  0
LINE
  8
0
 62
5
  6
CONTINUOUS
 10
12.774999999896151
 20
6.0227272726795995
 11
12.774999999896151
 21
4.8863636363252017
  0
LINE
  8
0
 62
50
  6
CONTINUOUS
 10
14.999999999878053
 20
4.3409090908750976
 11
14.999999999878053
 21
6.5681818181297071
  0
LINE
  8
0
 62
50
  6
CONTINUOUS
 10
14.999999999878053
 20
6.4204545454036408
 11
14.943181818060333
 21
6.4204545454036408
  0
LINE
  8
0
 62
50
  6
CONTINUOUS
 10
14.943181818060333
 20
4.4886363636011639
 11
14.999999999878053
 21
4.4886363636011639
  0
LINE
  8
0
 62
5
  6
CONTINUOUS
 10
12.670454545351538
 20
5.9181818181349852
 11
14.943181818060333
 21
5.9181818181349888
  0
LINE
  8
0
 62
5
  6
CONTINUOUS
 10
12.670454545351538
 20
4.990909090869815
 11
14.943181818060333
 21
4.9909090908698159
  0
ENDBLK
  0
BLOCK
  8
249
 62
5
  6
DASHDOT
  2
TELL_6
 70
0
 10
12.670454545351538
 20
5.4545454545011101
  0
CIRCLE
  8
249
 62
50
  6
CONTINUOUS
 10
12.670454545351538
 20
5.4545454545024024
 40
0.46363636363259442
  0
ARC
  8
249
 62
5
  6
CONTINUOUS
 10
12.670454545351538
 20
5.4545454545024024
 40
0.56818181817719904
 50
175.00000000000003
 51
90
  0
LINE
  8
249
 62
5
  6
DASHDOT
 10
12.670454545351538
 20
6.2499999999504814
 11
12.670454545351538
 21
4.6590909090543242
  0
ENDBLK
  0
BLOCK
  8
0
 62
5
  6
CONTINUOUS
  2
3_51_CE
 70
0
 10
12.670454545351538
 20
2.0453295622674628e-010
  0
INSERT
  8
0
 62
140
  6
CONTINUOUS
  2
TELL_4
 10
12.670454545351538
 20
0.48382367404355858
 41
1.0
 42
1.0
 50
0.0
  0
LINE
  8
0
 62
50
  6
CONTINUOUS
 10
14.374999999883135
 20
0.9114624577722249
 11
14.783775013148809
 21
0.34090909090761129
  0
LINE
  8
0
 62
50
  6
CONTINUOUS
 10
10.557134077554274
 20
0.34090909090761129
 11
10.965909090819942
 21
0.9114624577722249
  0
LINE
  8
0
 62
50
  6
CONTINUOUS
 10
10.965909090819942
 20
0.9114624577722249
 11
10.965909090819942
 21
7.1590909090339991
  0
LINE
  8
0
 62
50
  6
CONTINUOUS
 10
10.965909090819942
 20
7.1590909090339991
 11
14.374999999883135
 21
7.1590909090339991
  0
LINE
  8
0
 62
50
  6
CONTINUOUS
 10
14.374999999883135
 20
7.1590909090339991
 11
14.374999999883135
 21
7.0454545453985595
  0
LINE
  8
0
 62
50
  6
CONTINUOUS
 10
14.374999999883135
 20
3.8636363636062452
 11
14.374999999883135
 21
0.9114624577722249
  0
LINE
  8
0
 62
50
  6
CONTINUOUS
 10
14.943181818060333
 20
7.0454545453985595
 11
14.943181818060333
 21
3.8636363636062452
  0
LINE
  8
0
 62
50
  6
CONTINUOUS
 10
13.920454545341375
 20
3.8636363636062452
 11
14.943181818060333
 21
3.8636363636062452
  0
LINE
  8
0
 62
5
  6
CONTINUOUS
 10
11.306818181690138
 20
0.90909090928805136
 11
11.306818181690138
 21
7.1590909092372401
  0
LINE
  8
0
 62
5
  6
CONTINUOUS
 10
14.034090908940694
 20
3.8636363638094862
 11
14.034090908940694
 21
0.90909090928805136
  0
LINE
  8
0
 62
50
  6
CONTINUOUS
 10
13.920454545341375
 20
7.0454545453985595
 11
14.943181818060333
 21
7.0454545453985595
  0
LINE
  8
0
 62
50
  6
CONTINUOUS
 10
6.9886363635795474
 20
0.34090909090761129
 11
10.557134077554274
 21
0.34090909090761129
  0
LINE
  8
0
 62
50
  6
CONTINUOUS
 10
14.783775013148821
 20
0.34090909090761129
 11
18.352272727123527
 21
0.34090909090761129
  0
LINE
  8
0
 62
50
  6
CONTINUOUS
 10
14.034090908976816
 20
0.056184890318638783
 11
11.306818181726261
 21
0.056184890318638783
  0
LINE
  8
0
 62
5
  6
CONTINUOUS
 10
14.261363636211573
 20
6.9318181817631199
 11
14.261363636211573
 21
3.9772727272416848
  0
LINE
  8
0
 62
50
  6
CONTINUOUS
 10
13.920454545341375
 20
3.8636363636062452
 11
13.920454545341375
 21
7.0454545453985595
  0
LINE
  8
0
 62
50
  6
CONTINUOUS
 10
18.352272727123527
 20
-0.56818181817590707
 11
18.352272727123527
 21
0.34090909090761129
  0
LINE
  8
0
 62
50
  6
CONTINUOUS
 10
6.9886363635795474
 20
-0.56818181817590707
 11
6.9886363635795474
 21
0.34090909090761129
  0
LINE
  8
0
 62
5
  6
CONTINUOUS
 10
6.9886363635434261
 20
-0.34090909070178643
 11
18.352272727087406
 21
-0.34090909070178643
  0
LINE
  8
0
 62
50
  6
CONTINUOUS
 10
18.352272727123527
 20
-0.56818181817590707
 11
17.696192875776998
 21
-1.7045454545303051
  0
LINE
  8
0
 62
50
  6
CONTINUOUS
 10
17.696192875776998
 20
-1.7045454545303051
 11
7.6447162149260581
 21
-1.7045454545303051
  0
LINE
  8
0
 62
50
  6
CONTINUOUS
 10
7.6447162149260581
 20
-1.7045454545303051
 11
6.9886363635795474
 21
-0.56818181817590707
  0
ARC
  8
0
 62
50
  6
CONTINUOUS
 10
10.557134077554274
 20
-0.78841908899226365
 40
1.1293281798998749
 50
48.407223542190785
 51
90
  0
ARC
  8
0
 62
50
  6
CONTINUOUS
 10
14.783775013148809
 20
-0.78841908899228952
 40
1.1293281798999009
 50
90.000000000376218
 51
131.59277645753176
  0
LINE
  8
0
 62
50
  6
CONTINUOUS
 10
10.965909090819942
 20
0.9114624577722249
 11
14.374999999883135
 21
0.9114624577722249
  0
LINE
  8
0
 62
5
  6
DASHDOT
 10
11.988636363538893
 20
5.4545454545024024
 11
15.988324155587899
 21
5.4545454545024024
  0
INSERT
  8
0
 62
5
  6
DASHDOT
  2
TELL_5
 10
14.943181818024213
 20
5.4545454547056433
 41
1.0
 42
1.0
 50
0.0
  0
LINE
  8
0
 62
5
  6
DASHDOT
 10
8.465909090840265
 20
-0.6844100650274344
 11
8.465909090840265
 21
0.7013683606430039
  0
LINE
  8
0
 62
5
  6
DASHDOT
 10
16.874999999862812
 20
-0.6844100650274344
 11
16.874999999862812
 21
0.7013683606430039
  0
INSERT
  8
249
 62
5
  6
DASHDOT
  2
TELL_6
 10
12.670454545351538
 20
5.4545454545011101
 41
1.0
 42
1.0
 50
0.0
  0
ENDBLK
  0
BLOCK
  8
0
 62
5
  6
DASHDOT
  2
TELL_8
 70
0
 10
-3.6121408893983433e-011
 20
-14.204545454225443
  0
LINE
  8
0
 62
50
  6
CONTINUOUS
 10
1.1136363636273146
 20
-14.261363636247696
 11
1.1136363636273146
 21
-14.925400508804083
  0
ARC
  8
0
 62
50
  6
CONTINUOUS
 10
0.83522727272048514
 20
-14.443181818064389
 40
0.55681818181365506
 50
227.54026094004348
 51
300
  0
ARC
  8
0
 62
50
  6
CONTINUOUS
 10
3.2297397079741984e-015
 20
-14.204545454429976
 40
0.79545454544807859
 50
234.72863805591317
 51
305.27136194408683
  0
ARC
  8
0
 62
50
  6
CONTINUOUS
 10
-0.8352272727204787
 20
-14.443181818064389
 40
0.55681818181365506
 50
240
 51
312.45973905995652
  0
LINE
  8
0
 62
50
  6
CONTINUOUS
 10
-1.113636363627305
 20
-14.925400508804083
 11
-1.113636363627305
 21
-14.261363636247696
  0
LINE
  8
0
 62
50
  6
CONTINUOUS
 10
0.45933492778036106
 20
-14.853975479910025
 11
0.45933492778036106
 21
-14.261363636247696
  0
LINE
  8
0
 62
50
  6
CONTINUOUS
 10
-0.4593349277803514
 20
-14.853975479910025
 11
-0.4593349277803514
 21
-14.261363636247696
  0
LINE
  8
0
 62
50
  6
CONTINUOUS
 10
0.83522727272048514
 20
-14.999999999878053
 11
-0.8352272727204787
 21
-14.999999999878053
  0
LINE
  8
0
 62
5
  6
CONTINUOUS
 10
0.56818181817720226
 20
-14.204545454429976
 11
0.56818181817718605
 21
-12.036363636265792
  0
LINE
  8
0
 62
5
  6
CONTINUOUS
 10
0.56818181817718605
 20
-12.036363636265792
 11
0.46363636363258287
 21
-11.931818181721178
  0
LINE
  8
0
 62
5
  6
CONTINUOUS
 10
0.46363636363258287
 20
-11.931818181721178
 11
-0.46363636363260552
 21
-11.931818181721178
  0
LINE
  8
0
 62
5
  6
CONTINUOUS
 10
-0.46363636363260552
 20
-11.931818181721178
 11
-0.56818181817721192
 21
-12.036363636265792
  0
LINE
  8
0
 62
5
  6
CONTINUOUS
 10
-0.56818181817721192
 20
-12.036363636265792
 11
-0.56818181817719582
 21
-14.204545454429976
  0
LINE
  8
0
 62
5
  6
CONTINUOUS
 10
0.56818181817718605
 20
-12.036363636265792
 11
-0.56818181817721192
 21
-12.036363636265792
  0
LINE
  8
0
 62
50
  6
CONTINUOUS
 10
-1.113636363627305
 20
-14.261363636247696
 11
1.1136363636273146
 21
-14.261363636247696
  0
LINE
  8
0
 62
50
  6
CONTINUOUS
 10
0.96590909090124155
 20
-14.261363636247696
 11
0.96590909090124155
 21
-14.204545454429976
  0
LINE
  8
0
 62
50
  6
CONTINUOUS
 10
-0.96590909090123511
 20
-14.204545454429976
 11
-0.96590909090123511
 21
-14.261363636247696
  0
LINE
  8
0
 62
5
  6
CONTINUOUS
 10
0.46363636363258287
 20
-11.931818181721178
 11
0.46363636363259902
 21
-14.204545454429976
  0
LINE
  8
0
 62
5
  6
CONTINUOUS
 10
-0.46363636363260552
 20
-11.931818181721178
 11
-0.46363636363259259
 21
-14.204545454429976
  0
ENDBLK
  0
BLOCK
  8
0
 62
5
  6
CONTINUOUS
  2
TELL_7
 70
0
 10
-3.6121408893983433e-011
 20
-11.931818181516647
  0
LINE
  8
0
 62
50
  6
CONTINUOUS
 10
2.4431818181619556
 20
-6.2499999999478968
 11
2.4431818181619622
 21
-17.613636363491878
  0
LINE
  8
0
 62
50
  6
CONTINUOUS
 10
-2.4431818181619493
 20
-17.613636363491878
 11
2.4431818181619622
 21
-17.613636363491878
  0
LINE
  8
0
 62
50
  6
CONTINUOUS
 10
-2.4431818181619493
 20
-17.613636363491878
 11
-2.4431818181619556
 21
-6.2499999999478968
  0
LINE
  8
0
 62
50
  6
CONTINUOUS
 10
-2.4431818181619556
 20
-6.2499999999478968
 11
2.4431818181619556
 21
-6.2499999999478968
  0
LINE
  8
0
 62
5
  6
CONTINUOUS
 10
1.7613636363131955
 20
-6.2499999997446558
 11
1.7613636363131955
 21
-13.817963205364954
  0
LINE
  8
0
 62
5
  6
CONTINUOUS
 10
-1.7613636363854384
 20
-17.613636363288638
 11
-1.7613636363854384
 21
-14.182104688316514
  0
LINE
  8
0
 62
5
  6
CONTINUOUS
 10
-1.7613636363854384
 20
-13.817963205364954
 11
-1.7613636363854384
 21
-6.2499999997446558
  0
LINE
  8
0
 62
5
  6
CONTINUOUS
 10
1.7613636363131955
 20
-14.182104688316514
 11
1.7613636363131955
 21
-17.613636363288638
  0
LINE
  8
0
 62
50
  6
CONTINUOUS
 10
1.6477272727118522
 20
-14.204545454429976
 11
-1.6477272727159087
 21
-14.204545454428683
  0
LINE
  8
0
 62
50
  6
CONTINUOUS
 10
-2.3295454545285477
 20
-13.522727272617336
 11
-2.3295454545265128
 21
-13.181818181709724
  0
LINE
  8
0
 62
50
  6
CONTINUOUS
 10
-2.3295454545265128
 20
-13.181818181709724
 11
-1.9886363636201934
 21
-13.181818181709724
  0
LINE
  8
0
 62
50
  6
CONTINUOUS
 10
-1.9886363636201934
 20
-13.181818181709724
 11
-1.988636363622228
 21
-13.522727272617336
  0
LINE
  8
0
 62
50
  6
CONTINUOUS
 10
-1.6477272727159087
 20
-13.863636363523655
 11
1.6477272727118522
 21
-13.863636363523655
  0
LINE
  8
0
 62
50
  6
CONTINUOUS
 10
1.9886363636181714
 20
-13.522727272617336
 11
1.9886363636202062
 21
-13.181818181709724
  0
LINE
  8
0
 62
50
  6
CONTINUOUS
 10
1.9886363636202062
 20
-13.181818181709724
 11
2.3295454545265257
 21
-13.181818181709724
  0
LINE
  8
0
 62
50
  6
CONTINUOUS
 10
2.3295454545265257
 20
-13.181818181709724
 11
2.3295454545244909
 21
-13.522727272617336
  0
LINE
  8
0
 62
50
  6
CONTINUOUS
 10
1.7045454545295688
 20
-10.568181818095901
 11
1.7045454545316003
 21
-13.295454545346457
  0
LINE
  8
0
 62
50
  6
CONTINUOUS
 10
1.3636363636232494
 20
-13.636363636252776
 11
-1.3636363636273059
 21
-13.636363636251485
  0
LINE
  8
0
 62
50
  6
CONTINUOUS
 10
-1.7045454545336254
 20
-13.295454545346457
 11
-1.7045454545336254
 21
-10.568181818095901
  0
LINE
  8
0
 62
50
  6
CONTINUOUS
 10
-1.3636363636273059
 20
-10.227272727189582
 11
1.3636363636232494
 21
-10.227272727189582
  0
LINE
  8
0
 62
50
  6
CONTINUOUS
 10
-1.4204545454450257
 20
-10.568181818095901
 11
-1.4204545454429942
 21
-13.295454545346457
  0
LINE
  8
0
 62
50
  6
CONTINUOUS
 10
-1.3636363636273059
 20
-13.352272727164177
 11
1.3636363636232494
 21
-13.352272727164177
  0
LINE
  8
0
 62
50
  6
CONTINUOUS
 10
1.4204545454409692
 20
-13.295454545346457
 11
1.4204545454409692
 21
-10.568181818095901
  0
LINE
  8
0
 62
50
  6
CONTINUOUS
 10
1.3636363636232494
 20
-10.511363636278181
 11
-1.3636363636273059
 21
-10.51136363627689
  0
CIRCLE
  8
0
 62
50
  6
CONTINUOUS
 10
6.4594794159483969e-015
 20
-16.13636363623116
 40
0.56818181817719415
  0
CIRCLE
  8
0
 62
50
  6
CONTINUOUS
 10
0
 20
-7.7272727272086144
 40
0.56818181817719571
  0
ARC
  8
0
 62
50
  6
CONTINUOUS
 10
-1.3636363636252744
 20
-13.295454545345166
 40
0.056818181817719901
 50
180.00000000130277
 51
270
  0
ARC
  8
0
 62
50
  6
CONTINUOUS
 10
1.3636363636252842
 20
-13.295454545346457
 40
0.056818181817719901
 50
270
 51
0
  0
ARC
  8
0
 62
50
  6
CONTINUOUS
 10
-1.3636363636252744
 20
-10.56818181809461
 40
0.056818181817719901
 50
90
 51
180.00000000130277
  0
ARC
  8
0
 62
50
  6
CONTINUOUS
 10
1.3636363636232494
 20
-10.56818181809461
 40
0.056818181817719901
 50
359.99999999869726
 51
90
  0
ARC
  8
0
 62
50
  6
CONTINUOUS
 10
-1.3636363636252711
 20
-13.295454545345166
 40
0.34090909090631938
 50
180.00000000021711
 51
270
  0
ARC
  8
0
 62
50
  6
CONTINUOUS
 10
1.3636363636252808
 20
-13.295454545345166
 40
0.34090909090631938
 50
270
 51
359.99999999978286
  0
ARC
  8
0
 62
50
  6
CONTINUOUS
 10
-1.3636363636273059
 20
-10.56818181809461
 40
0.34090909090631938
 50
90
 51
180.00000000021711
  0
ARC
  8
0
 62
50
  6
CONTINUOUS
 10
1.3636363636252808
 20
-10.568181818095901
 40
0.34090909090631938
 50
0
 51
90
  0
ARC
  8
0
 62
50
  6
CONTINUOUS
 10
-1.6477272727138708
 20
-13.522727272616045
 40
0.34090909090631938
 50
180.00000000021711
 51
270
  0
ARC
  8
0
 62
50
  6
CONTINUOUS
 10
1.6477272727138901
 20
-13.522727272617336
 40
0.34090909090631938
 50
270
 51
0
  0
ARC
  8
0
 62
50
  6
CONTINUOUS
 10
-1.6477272727138739
 20
-13.522727272616045
 40
0.68181818181263876
 50
180.00000000010857
 51
270
  0
ARC
  8
0
 62
50
  6
CONTINUOUS
 10
1.6477272727138867
 20
-13.522727272616045
 40
0.68181818181263876
 50
270
 51
359.99999999989143
  0
LINE
  8
0
 62
5
  6
DASHDOT
 10
-0.68181818181262588
 20
-16.13636363623116
 11
0.68181818181263876
 21
-16.13636363623116
  0
LINE
  8
0
 62
5
  6
DASHDOT
 10
-0.68181818181263554
 20
-7.7272727272086144
 11
0.68181818181263554
 21
-7.7272727272086144
  0
LINE
  8
0
 62
5
  6
DASHDOT
 10
3.2297397079741984e-015
 20
-17.840909090762757
 11
3.2297397079741984e-015
 21
-6.0227272726770176
  0
INSERT
  8
0
 62
5
  6
DASHDOT
  2
TELL_8
 10
-3.6121408893983433e-011
 20
-14.204545454225443
 41
1.0
 42
1.0
 50
0.0
  0
ENDBLK
  0
ENDSEC
  0
SECTION
  2
ENTITIES
  0
INSERT
  8
0
 62
5
  6
CONTINUOUS
  2
TELL_1
 10
-3.6121408893983433e-011
 20
2.0453295622659004e-010
 41
1.0
 42
1.0
 50
0.0
  0
INSERT
  8
0
 62
5
  6
CONTINUOUS
  2
3_51_CE
 10
12.670454545351538
 20
2.0453295622674628e-010
 41
1.0
 42
1.0
 50
0.0
  0
INSERT
  8
0
 62
5
  6
CONTINUOUS
  2
TELL_7
 10
-3.6121408893983433e-011
 20
-11.931818181516647
 41
1.0
 42
1.0
 50
0.0
  0
ENDSEC
  0
EOF
