  0
SECTION
  2
HEADER
  9
$ACADVER
  1
AC1009
  9
$EXTMIN
 10
-2.6125401929856462
 20
-16.720257234545041
  9
$EXTMAX
 10
19.560403026648714
 20
8.2797427654549622
  9
$TEXTSTYLE
  7
STANDARD
  9
$DIMLFAC
 40
1
  9
$REGENMODE
 70
1
  9
$DRAGMODE
 70
2
  9
$DIMASO
 70
1
  9
$LTSCALE
 40
1.0000000000
  0
ENDSEC
  0
SECTION
  2
TABLES
  0
TABLE
  2
LTYPE
 70
2
  0
LTYPE
  2
CONTINUOUS
 70
64
  3
CONTINUOUS
 72
65
 73
0
 40
0.0000000000
  0
LTYPE
  2
DASHDOT
 70
64
  3
DASHDOT
 72
65
 73
4
 40
1.0000000000
 49
0.5000000000
 49
-0.2500000000
 49
0.0000000000
 49
-0.2500000000
  0
ENDTAB
  0
TABLE
  2
LAYER
 70
2
  0
LAYER
  2
0
 70
0
 62
2
  6
CONTINUOUS
  0
LAYER
  2
249
 70
0
 62
2
  6
CONTINUOUS
  0
ENDTAB
  0
TABLE
  2
STYLE
 70
0
  0
STYLE
  2
Standard
 70
0
 40
0
 41
1
 50
0
 71
0
 42
2.5
  3
txt
  4

  0
ENDTAB
  0
ENDSEC
  0
SECTION
  2
BLOCKS
  0
BLOCK
  8
0
 62
140
  6
CONTINUOUS
  2
TELL_2
 70
0
 10
5.044624953674344e-012
 20
0.34141587758094161
  0
LINE
  8
0
 62
50
  6
CONTINUOUS
 10
-2.0096463026026523
 20
0.64308681644499455
 11
-2.4419127624192112
 21
0.039744938618262539
  0
ARC
  8
0
 62
50
  6
CONTINUOUS
 10
-2.0498392283407916
 20
-0.24115755627538724
 40
0.48231511255077447
 50
90
 51
144.38015892044459
  0
LINE
  8
0
 62
50
  6
CONTINUOUS
 10
-2.0498392283430764
 20
0.24115755627538724
 11
2.0498392283385067
 21
0.24115755627538724
  0
ARC
  8
0
 62
50
  6
CONTINUOUS
 10
2.0498392283408098
 20
-0.24115755627538724
 40
0.48231511255077447
 50
35.619841130134148
 51
90
  0
LINE
  8
0
 62
50
  6
CONTINUOUS
 10
2.4419127626075618
 20
0.039744938618262539
 11
2.0096463019871349
 21
0.64308681644499455
  0
LINE
  8
0
 62
50
  6
CONTINUOUS
 10
2.0096463022949118
 20
0.64308681673436596
 11
-2.0096463022948754
 21
0.64308681673436596
  0
ENDBLK
  0
BLOCK
  8
249
 62
5
  6
DASHDOT
  2
TELL_3
 70
0
 10
1.8277626643747623e-014
 20
6.5112540194354551
  0
LINE
  8
249
 62
50
  6
CONTINUOUS
 10
1.8277626643747623e-014
 20
7.3930590929759452
 11
-0.76366559487204133
 21
6.952156556205682
  0
LINE
  8
249
 62
50
  6
CONTINUOUS
 10
-0.76366559487204133
 20
6.952156556205682
 11
-0.76366559487204133
 21
6.0703514826652292
  0
LINE
  8
249
 62
50
  6
CONTINUOUS
 10
-0.76366559487204133
 20
6.0703514826652292
 11
1.8277626643747623e-014
 21
5.6294489458949659
  0
LINE
  8
249
 62
50
  6
CONTINUOUS
 10
1.8277626643747623e-014
 20
5.6294489458949659
 11
0.76366559487207786
 21
6.0703514826652292
  0
LINE
  8
249
 62
50
  6
CONTINUOUS
 10
0.76366559487207786
 20
6.0703514826652292
 11
0.76366559487207786
 21
6.952156556205682
  0
LINE
  8
249
 62
50
  6
CONTINUOUS
 10
0.76366559487207786
 20
6.952156556205682
 11
1.8277626643747623e-014
 21
7.3930590929759452
  0
CIRCLE
  8
249
 62
50
  6
CONTINUOUS
 10
1.8277626643747623e-014
 20
6.5112540194354551
 40
0.76366559487205954
  0
LINE
  8
249
 62
5
  6
DASHDOT
 10
1.8277626643747623e-014
 20
5.468677241711374
 11
1.8277626643747623e-014
 21
7.5538307971595362
  0
LINE
  8
249
 62
5
  6
DASHDOT
 10
-1.0425767777240447
 20
6.5112540194354551
 11
1.0425767777240813
 21
6.5112540194354551
  0
ENDBLK
  0
BLOCK
  8
249
 62
5
  6
DASHDOT
  2
TELL_4
 70
0
 10
2.3743270019868983e-090
 20
2.0900321543866527
  0
CIRCLE
  8
249
 62
50
  6
CONTINUOUS
 10
2.3743270019868983e-090
 20
2.0900321543866527
 40
0.39602090033023174
  0
ARC
  8
249
 62
5
  6
CONTINUOUS
 10
2.3743270019868983e-090
 20
2.0900321543866527
 40
0.48231511255077447
 50
175.00000000000003
 51
90
  0
LINE
  8
249
 62
5
  6
DASHDOT
 10
3.9377703791454646e-017
 20
2.7331189711210189
 11
-3.9377703791454646e-017
 21
1.4469453376522869
  0
LINE
  8
249
 62
5
  6
DASHDOT
 10
-0.64308681673436596
 20
2.0900321543866527
 11
0.64308681673436596
 21
2.0900321543866527
  0
ENDBLK
  0
BLOCK
  8
0
 62
50
  6
CONTINUOUS
  2
TELL_1
 70
0
 10
-3.0775867742716993e-010
 20
-2.8937138502403344e-010
  0
INSERT
  8
0
 62
140
  6
CONTINUOUS
  2
TELL_2
 10
5.044624953674344e-012
 20
0.34141587758094161
 41
1.0
 42
1.0
 50
0.0
  0
LINE
  8
0
 62
50
  6
CONTINUOUS
 10
-2.0096463026026523
 20
0.64308681644499455
 11
-2.4419127624192112
 21
0.039744938618262539
  0
LINE
  8
0
 62
50
  6
CONTINUOUS
 10
2.0096463019871349
 20
0.64308681644499455
 11
2.4419127626075618
 21
0.039744938618262539
  0
LINE
  8
0
 62
50
  6
CONTINUOUS
 10
-2.0096463022948754
 20
0.64308681673436596
 11
-2.0096463022948754
 21
4.9035369775995408
  0
LINE
  8
0
 62
50
  6
CONTINUOUS
 10
-2.0096463022948754
 20
8.1189710612713704
 11
-2.0096463022948754
 21
8.2797427654549622
  0
LINE
  8
0
 62
50
  6
CONTINUOUS
 10
2.0096463022949118
 20
8.2797427654549622
 11
2.0096463022949118
 21
8.1189710612713704
  0
LINE
  8
0
 62
50
  6
CONTINUOUS
 10
2.0096463022949118
 20
4.9035369775995408
 11
2.0096463022949118
 21
0.64308681673436596
  0
LINE
  8
0
 62
50
  6
CONTINUOUS
 10
-2.0096463022948754
 20
8.2797427654549622
 11
2.0096463022949118
 21
8.2797427654549622
  0
LINE
  8
0
 62
5
  6
CONTINUOUS
 10
-1.4469453379600821
 20
0.64308681644499455
 11
-1.4469453379600821
 21
4.9035369773101687
  0
LINE
  8
0
 62
5
  6
CONTINUOUS
 10
1.4469453373445647
 20
4.9035369773101687
 11
1.4469453373445647
 21
0.64308681644499455
  0
LINE
  8
0
 62
50
  6
CONTINUOUS
 10
-2.6125401929833618
 20
4.9035369775995408
 11
-2.6125401929833618
 21
8.1189710612713704
  0
LINE
  8
0
 62
50
  6
CONTINUOUS
 10
2.61254019298338
 20
8.1189710612713704
 11
2.61254019298338
 21
4.9035369775995408
  0
LINE
  8
0
 62
50
  6
CONTINUOUS
 10
-2.6125401929833618
 20
8.1189710612713704
 11
2.61254019298338
 21
8.1189710612713704
  0
LINE
  8
0
 62
5
  6
CONTINUOUS
 10
-1.9694533765567543
 20
5.0643086814937606
 11
-1.9694533765567543
 21
7.9581993567984073
  0
LINE
  8
0
 62
5
  6
CONTINUOUS
 10
1.9694533759412371
 20
7.9581993567984073
 11
1.9694533759412371
 21
5.0643086814937606
  0
LINE
  8
0
 62
50
  6
CONTINUOUS
 10
2.61254019298338
 20
4.9035369775995408
 11
-2.6125401929833618
 21
4.9035369775995408
  0
LINE
  8
0
 62
50
  6
CONTINUOUS
 10
-2.2909967846161603
 20
-1.6881028939277107
 11
-2.2909967846184633
 21
-0.24115755627538724
  0
LINE
  8
0
 62
50
  6
CONTINUOUS
 10
-2.2909967846161603
 20
-1.6881028939277107
 11
-2.5321543408915477
 21
-1.6881028939277107
  0
LINE
  8
0
 62
50
  6
CONTINUOUS
 10
-2.5321543408915477
 20
-1.6881028939277107
 11
-2.5321543408938507
 21
-0.24115755627538724
  0
LINE
  8
0
 62
50
  6
CONTINUOUS
 10
2.5321543408915841
 20
-1.6881028939277107
 11
2.2909967846161972
 21
-1.6881028939277107
  0
LINE
  8
0
 62
50
  6
CONTINUOUS
 10
2.2909967846161972
 20
-1.6881028939277107
 11
2.2909967846138941
 21
-0.24115755627538724
  0
LINE
  8
0
 62
50
  6
CONTINUOUS
 10
-2.0498392283430764
 20
0.24115755627538724
 11
2.0498392283385067
 21
0.24115755627538724
  0
LINE
  8
0
 62
50
  6
CONTINUOUS
 10
2.5321543408915841
 20
-1.6881028939277107
 11
2.5321543408892815
 21
-0.24115755627538724
  0
LINE
  8
0
 62
50
  6
CONTINUOUS
 10
2.5321543408915841
 20
-0.72347266882616168
 11
2.2909967846161972
 21
-0.72347266882616168
  0
LINE
  8
0
 62
50
  6
CONTINUOUS
 10
2.0498392283385067
 20
0
 11
-2.0498392283430764
 21
0
  0
LINE
  8
0
 62
50
  6
CONTINUOUS
 10
-2.2909967846161603
 20
-0.72347266882616168
 11
-2.5321543408915477
 21
-0.72347266882616168
  0
INSERT
  8
249
 62
5
  6
DASHDOT
  2
TELL_3
 10
1.8277626643747623e-014
 20
6.5112540194354551
 41
1.0
 42
1.0
 50
0.0
  0
ARC
  8
0
 62
50
  6
CONTINUOUS
 10
-2.0498392283407734
 20
-0.24115755627538724
 40
0.24115755627538724
 50
90
 51
180
  0
ARC
  8
0
 62
50
  6
CONTINUOUS
 10
-2.0498392283407916
 20
-0.24115755627538724
 40
0.48231511255077447
 50
144.38015892044459
 51
180
  0
ARC
  8
0
 62
50
  6
CONTINUOUS
 10
-2.0498392283407916
 20
-0.24115755627538724
 40
0.48231511255077447
 50
90
 51
144.38015892044459
  0
ARC
  8
0
 62
50
  6
CONTINUOUS
 10
2.0498392283408098
 20
-0.24115755627538724
 40
0.48231511255077447
 50
35.619841130134148
 51
90
  0
ARC
  8
0
 62
50
  6
CONTINUOUS
 10
2.0498392283408098
 20
-0.24115755627538724
 40
0.48231511255077447
 50
0
 51
35.619841130134148
  0
ARC
  8
0
 62
50
  6
CONTINUOUS
 10
2.0498392283408098
 20
-0.24115755627538724
 40
0.24115755627538724
 50
0
 51
90
  0
LINE
  8
0
 62
50
  6
CONTINUOUS
 10
-2.0096463022948754
 20
0.64308681673436596
 11
2.0096463022949118
 21
0.64308681673436596
  0
INSERT
  8
249
 62
5
  6
DASHDOT
  2
TELL_4
 10
2.3743270019868983e-090
 20
2.0900321543866527
 41
1.0
 42
1.0
 50
0.0
  0
LINE
  8
0
 62
5
  6
DASHDOT
 10
-3.9377703791454646e-017
 20
1.4469453376522869
 11
-3.9377703791454646e-017
 21
-0.61983937675833278
  0
ENDBLK
  0
BLOCK
  8
0
 62
140
  6
CONTINUOUS
  2
TELL_5
 70
0
 10
13.531464119390055
 20
0.341415877611977
  0
LINE
  8
0
 62
50
  6
CONTINUOUS
 10
15.541110421684968
 20
0.64308681673436596
 11
15.829074086992666
 21
0.24115755627538724
  0
LINE
  8
0
 62
50
  6
CONTINUOUS
 10
15.829074086992666
 20
0.24115755627538724
 11
15.573959183748565
 21
0.24115755627538724
  0
LINE
  8
0
 62
50
  6
CONTINUOUS
 10
15.573959142682687
 20
0.24115755627538724
 11
15.528392228358815
 21
0.23423921326691016
  0
LINE
  8
0
 62
50
  6
CONTINUOUS
 10
15.528392231042519
 20
0.23423920743945445
 11
15.437003767264915
 21
0.22472306734693717
  0
LINE
  8
0
 62
50
  6
CONTINUOUS
 10
15.437003767264915
 20
0.22472306734693717
 11
15.413457061051901
 21
0.2140370587461958
  0
LINE
  8
0
 62
50
  6
CONTINUOUS
 10
15.413457064591217
 20
0.21403704886618816
 11
15.285021284117242
 21
0.17721987874833511
  0
LINE
  8
0
 62
50
  6
CONTINUOUS
 10
15.285021284103461
 20
0.17721987880459364
 11
15.280767850369472
 21
0.17653958382270679
  0
LINE
  8
0
 62
50
  6
CONTINUOUS
 10
15.280767850369472
 20
0.17653958382270679
 11
14.992668370100466
 21
0.039744938489588044
  0
LINE
  8
0
 62
50
  6
CONTINUOUS
 10
14.992668370100466
 20
0.039744938489588044
 11
12.070259868679827
 21
0.039744938489588044
  0
LINE
  8
0
 62
50
  6
CONTINUOUS
 10
12.070259868679827
 20
0.039744938489588044
 11
11.782160388410674
 21
0.17653958382270679
  0
LINE
  8
0
 62
50
  6
CONTINUOUS
 10
11.782160388410674
 20
0.17653958382270679
 11
11.777906954676686
 21
0.17721987880459364
  0
LINE
  8
0
 62
50
  6
CONTINUOUS
 10
11.777906954662923
 20
0.17721987874833511
 11
11.64947117418893
 21
0.21403704886618816
  0
LINE
  8
0
 62
50
  6
CONTINUOUS
 10
11.649471177728174
 20
0.21403705874601303
 11
11.625924471514775
 21
0.22472306734693717
  0
LINE
  8
0
 62
50
  6
CONTINUOUS
 10
11.625924471514775
 20
0.22472306734693717
 11
11.534536007737591
 21
0.23423920743938134
  0
LINE
  8
0
 62
50
  6
CONTINUOUS
 10
11.534536010421315
 20
0.23423921326687361
 11
11.488969096097131
 21
0.24115755627538724
  0
LINE
  8
0
 62
50
  6
CONTINUOUS
 10
11.488969055031252
 20
0.24115755627538724
 11
11.233854151787463
 21
0.24115755627538724
  0
LINE
  8
0
 62
50
  6
CONTINUOUS
 10
11.233854151787481
 20
0.24115755627538724
 11
11.521817817095179
 21
0.64308681673436596
  0
LINE
  8
0
 62
50
  6
CONTINUOUS
 10
11.521817817095179
 20
0.64308681673436596
 11
15.541110421684968
 21
0.64308681673436596
  0
ENDBLK
  0
BLOCK
  8
249
 62
5
  6
DASHDOT
  2
TELL_6
 70
0
 10
16.505740647146684
 20
6.5112540191460671
  0
LINE
  8
249
 62
50
  6
CONTINUOUS
 10
16.545933572832414
 20
7.3914790998405691
 11
17.089863563657811
 21
7.3914790998405691
  0
ARC
  8
249
 62
50
  6
CONTINUOUS
 10
16.708714923318308
 20
7.1714228297393001
 40
0.44011254020258167
 50
317.88538956950413
 51
30
  0
ARC
  8
249
 62
50
  6
CONTINUOUS
 10
16.505740646786517
 20
6.5112540194354178
 40
0.64308681673436596
 50
325.41628176499029
 51
34.583718235009712
  0
ARC
  8
249
 62
50
  6
CONTINUOUS
 10
16.708714923318308
 20
5.85108520913154
 40
0.44011254020258167
 50
330
 51
42.114610430495873
  0
LINE
  8
249
 62
50
  6
CONTINUOUS
 10
17.08986356365785
 20
5.631028939030271
 11
16.545933572832414
 21
5.631028939030271
  0
LINE
  8
249
 62
50
  6
CONTINUOUS
 10
17.035192543699246
 20
6.8762764060270394
 11
16.545933572832414
 21
6.8762764060236394
  0
LINE
  8
249
 62
50
  6
CONTINUOUS
 10
17.035192543699281
 20
6.1462316328438007
 11
16.545933572832414
 21
6.1462316328471998
  0
LINE
  8
249
 62
50
  6
CONTINUOUS
 10
17.148827463520881
 20
7.1714228297393001
 11
17.148827463520881
 21
5.85108520913154
  0
LINE
  8
249
 62
5
  6
CONTINUOUS
 10
16.505740646786517
 20
6.9935691319861943
 11
14.584518781792591
 21
6.9935691319861863
  0
LINE
  8
249
 62
5
  6
CONTINUOUS
 10
14.584518781792591
 20
6.9935691319861863
 11
14.496094344491622
 21
6.9051446946852186
  0
LINE
  8
249
 62
5
  6
CONTINUOUS
 10
14.496094344491622
 20
6.9051446946852186
 11
14.496094344491622
 21
6.1173633441856055
  0
LINE
  8
249
 62
5
  6
CONTINUOUS
 10
14.496094344491622
 20
6.1173633441856055
 11
14.584518781792591
 21
6.0289389068846377
  0
LINE
  8
249
 62
5
  6
CONTINUOUS
 10
14.584518781792591
 20
6.0289389068846377
 11
16.505740646786517
 21
6.0289389068846457
  0
LINE
  8
249
 62
50
  6
CONTINUOUS
 10
16.545933572832414
 20
5.631028939030271
 11
16.545933572832414
 21
7.3914790998405691
  0
LINE
  8
249
 62
50
  6
CONTINUOUS
 10
16.545933572832414
 20
7.2749196143074792
 11
16.505740646786517
 21
7.2749196143074792
  0
LINE
  8
249
 62
50
  6
CONTINUOUS
 10
16.505740646786517
 20
5.7475884245633599
 11
16.545933572832414
 21
5.7475884245633599
  0
LINE
  8
249
 62
5
  6
CONTINUOUS
 10
14.496094344491622
 20
6.9051446946852186
 11
16.505740646786517
 21
6.9051446946852266
  0
LINE
  8
249
 62
5
  6
CONTINUOUS
 10
14.496094344491622
 20
6.1173633441856055
 11
16.505740646786517
 21
6.1173633441856134
  0
LINE
  8
249
 62
5
  6
DASHDOT
 10
14.33532264030803
 20
6.5112540194354116
 11
17.309599167704473
 21
6.5112540194354196
  0
ENDBLK
  0
BLOCK
  8
249
 62
5
  6
DASHDOT
  2
TELL_7
 70
0
 10
13.531464119390073
 20
2.0900321543866527
  0
CIRCLE
  8
249
 62
50
  6
CONTINUOUS
 10
13.531464119390073
 20
2.0900321543866527
 40
0.39602090033023174
  0
ARC
  8
249
 62
5
  6
CONTINUOUS
 10
13.531464119390073
 20
2.0900321543866527
 40
0.48231511255077447
 50
175.00000000000003
 51
90
  0
LINE
  8
249
 62
5
  6
DASHDOT
 10
13.531464119390073
 20
2.7331189711210189
 11
13.531464119390073
 21
1.4469453376522869
  0
LINE
  8
249
 62
5
  6
DASHDOT
 10
12.888377302655707
 20
2.0900321543866527
 11
14.174550936124438
 21
2.0900321543866527
  0
ENDBLK
  0
BLOCK
  8
0
 62
5
  6
DASHDOT
  2
TELL_8
 70
0
 10
13.531464119390073
 20
6.5112540194354187
  0
CIRCLE
  8
0
 62
50
  6
CONTINUOUS
 10
13.531464119390073
 20
6.5112540194354187
 40
0.39602090033023174
  0
ARC
  8
0
 62
5
  6
CONTINUOUS
 10
13.531464119390073
 20
6.5112540194354187
 40
0.48231511255077447
 50
175.00000000000003
 51
90
  0
LINE
  8
0
 62
5
  6
DASHDOT
 10
13.531464119390073
 20
7.1543408361697844
 11
13.531464119390073
 21
5.868167202701053
  0
LINE
  8
0
 62
5
  6
DASHDOT
 10
12.888377302655707
 20
6.5112540194354187
 11
14.174550936124438
 21
6.5112540194354187
  0
ENDBLK
  0
BLOCK
  8
0
 62
50
  6
CONTINUOUS
  2
3_51_CRE
 70
0
 10
13.531464119750243
 20
-2.8937138502403344e-010
  0
INSERT
  8
0
 62
140
  6
CONTINUOUS
  2
TELL_5
 10
13.531464119390055
 20
0.341415877611977
 41
1.0
 42
1.0
 50
0.0
  0
LINE
  8
0
 62
50
  6
CONTINUOUS
 10
15.541110421684968
 20
0.64308681673436596
 11
15.829074086992666
 21
0.24115755627538724
  0
LINE
  8
0
 62
50
  6
CONTINUOUS
 10
11.233854151787481
 20
0.24115755627538724
 11
11.521817817095179
 21
0.64308681673436596
  0
LINE
  8
0
 62
50
  6
CONTINUOUS
 10
15.541110421684968
 20
8.2797427654549622
 11
15.541110421684968
 21
8.1189710612713704
  0
LINE
  8
0
 62
50
  6
CONTINUOUS
 10
15.541110421684968
 20
4.9035369775995408
 11
15.541110421684968
 21
0.64308681673436596
  0
LINE
  8
0
 62
50
  6
CONTINUOUS
 10
11.521817817095179
 20
0.64308681673436596
 11
11.521817817095179
 21
8.2797427654549622
  0
LINE
  8
0
 62
50
  6
CONTINUOUS
 10
11.521817817095179
 20
8.2797427654549622
 11
15.541110421684968
 21
8.2797427654549622
  0
LINE
  8
0
 62
50
  6
CONTINUOUS
 10
15.573959142682687
 20
0.24115755627538724
 11
15.528392228358815
 21
0.23423921326691016
  0
LINE
  8
0
 62
50
  6
CONTINUOUS
 10
11.534536010421315
 20
0.23423921326687361
 11
11.488969096097131
 21
0.24115755627538724
  0
LINE
  8
0
 62
5
  6
CONTINUOUS
 10
12.08451878211171
 20
0.64308681644499455
 11
12.08451878211171
 21
8.2797427651655902
  0
LINE
  8
0
 62
5
  6
CONTINUOUS
 10
14.978409457416356
 20
4.9035369773101687
 11
14.978409457416356
 21
0.64308681644499455
  0
LINE
  8
0
 62
50
  6
CONTINUOUS
 10
16.505740646786517
 20
8.1189710612713704
 11
16.505740646786517
 21
4.9035369775995408
  0
LINE
  8
0
 62
50
  6
CONTINUOUS
 10
15.437003767264915
 20
0.22472306734693717
 11
15.413457061051901
 21
0.2140370587461958
  0
LINE
  8
0
 62
50
  6
CONTINUOUS
 10
15.528392231042519
 20
0.23423920743945445
 11
15.437003767264915
 21
0.22472306734693717
  0
LINE
  8
0
 62
50
  6
CONTINUOUS
 10
11.625924471514775
 20
0.22472306734693717
 11
11.534536007737591
 21
0.23423920743938134
  0
LINE
  8
0
 62
50
  6
CONTINUOUS
 10
11.649471177728174
 20
0.21403705874601303
 11
11.625924471514775
 21
0.22472306734693717
  0
LINE
  8
0
 62
50
  6
CONTINUOUS
 10
7.5025252125053923
 20
0.24115755627538724
 11
11.233854151787463
 21
0.24115755627538724
  0
LINE
  8
0
 62
50
  6
CONTINUOUS
 10
11.233854151787463
 20
0.24115755627538724
 11
11.488969055031252
 21
0.24115755627538724
  0
LINE
  8
0
 62
50
  6
CONTINUOUS
 10
19.560403026274756
 20
-0.72347266882616168
 11
19.560403026274756
 21
0.24115755627538724
  0
LINE
  8
0
 62
50
  6
CONTINUOUS
 10
15.573959183748565
 20
0.24115755627538724
 11
15.829074086992666
 21
0.24115755627538724
  0
LINE
  8
0
 62
50
  6
CONTINUOUS
 10
15.829074086992666
 20
0.24115755627538724
 11
19.560403026274756
 21
0.24115755627538724
  0
LINE
  8
0
 62
50
  6
CONTINUOUS
 10
15.413457064591217
 20
0.21403704886618816
 11
15.285021284117242
 21
0.17721987874833511
  0
LINE
  8
0
 62
50
  6
CONTINUOUS
 10
11.777906954662923
 20
0.17721987874833511
 11
11.64947117418893
 21
0.21403704886618816
  0
LINE
  8
0
 62
50
  6
CONTINUOUS
 10
11.782160388410674
 20
0.17653958382270679
 11
11.777906954676686
 21
0.17721987880459364
  0
LINE
  8
0
 62
50
  6
CONTINUOUS
 10
12.070259868679827
 20
0.039744938489588044
 11
11.782160388410674
 21
0.17653958382270679
  0
LINE
  8
0
 62
50
  6
CONTINUOUS
 10
15.285021284103461
 20
0.17721987880459364
 11
15.280767850369472
 21
0.17653958382270679
  0
LINE
  8
0
 62
50
  6
CONTINUOUS
 10
15.280767850369472
 20
0.17653958382270679
 11
14.992668370100466
 21
0.039744938489588044
  0
LINE
  8
0
 62
50
  6
CONTINUOUS
 10
14.992668370100466
 20
0.039744938489588044
 11
12.070259868679827
 21
0.039744938489588044
  0
LINE
  8
0
 62
50
  6
CONTINUOUS
 10
14.576480196583418
 20
8.1189710612713704
 11
16.505740646786517
 21
8.1189710612713704
  0
LINE
  8
0
 62
50
  6
CONTINUOUS
 10
7.5025252125053923
 20
-0.72347266882616168
 11
7.5025252125053923
 21
0.24115755627538724
  0
LINE
  8
0
 62
5
  6
CONTINUOUS
 10
7.5025252128793527
 20
-0.24115755656475862
 11
19.560403026648714
 21
-0.24115755656475862
  0
LINE
  8
0
 62
50
  6
CONTINUOUS
 10
19.560403026274756
 20
-0.72347266882616168
 11
19.003473506143937
 21
-1.6881028939277107
  0
LINE
  8
0
 62
50
  6
CONTINUOUS
 10
8.0594547326362083
 20
-1.6881028939277107
 11
19.003473506143937
 21
-1.6881028939277107
  0
LINE
  8
0
 62
50
  6
CONTINUOUS
 10
8.0594547326362083
 20
-1.6881028939277107
 11
7.5025252125053923
 21
-0.72347266882616168
  0
LINE
  8
0
 62
5
  6
CONTINUOUS
 10
15.86265383042611
 20
7.9581993567984073
 11
15.86265383042611
 21
5.0643086814937606
  0
LINE
  8
0
 62
50
  6
CONTINUOUS
 10
14.576480196583418
 20
4.9035369775995408
 11
16.505740646786517
 21
4.9035369775995408
  0
LINE
  8
0
 62
50
  6
CONTINUOUS
 10
14.576480196583418
 20
4.9035369775995408
 11
14.576480196583418
 21
8.1189710612713704
  0
LINE
  8
0
 62
50
  6
CONTINUOUS
 10
11.521817817095179
 20
0.64308681673436596
 11
15.541110421684968
 21
0.64308681673436596
  0
INSERT
  8
249
 62
5
  6
DASHDOT
  2
TELL_6
 10
16.505740647146684
 20
6.5112540191460671
 41
1.0
 42
1.0
 50
0.0
  0
LINE
  8
0
 62
5
  6
DASHDOT
 10
8.7083129938823287
 20
-0.41162936742275241
 11
8.7083129938823287
 21
0.52092014069117998
  0
LINE
  8
0
 62
5
  6
DASHDOT
 10
18.354615244897818
 20
-0.41162936742275241
 11
18.354615244897818
 21
0.52092014069117998
  0
INSERT
  8
249
 62
5
  6
DASHDOT
  2
TELL_7
 10
13.531464119390073
 20
2.0900321543866527
 41
1.0
 42
1.0
 50
0.0
  0
INSERT
  8
0
 62
5
  6
DASHDOT
  2
TELL_8
 10
13.531464119390073
 20
6.5112540194354187
 41
1.0
 42
1.0
 50
0.0
  0
ENDBLK
  0
BLOCK
  8
249
 62
5
  6
DASHDOT
  2
TELL_10
 70
0
 10
-3.0775867742742248e-010
 20
-13.424437298815411
  0
LINE
  8
249
 62
50
  6
CONTINUOUS
 10
0.88022508040518532
 20
-13.464630224827312
 11
0.8802250804051871
 21
-14.008560215652748
  0
ARC
  8
249
 62
50
  6
CONTINUOUS
 10
0.66016881030389873
 20
-13.627411575313205
 40
0.44011254020258167
 50
227.88538956950413
 51
300
  0
ARC
  8
249
 62
50
  6
CONTINUOUS
 10
1.8277626643747623e-014
 20
-13.424437298781415
 40
0.64308681673436596
 50
235.41628176499029
 51
304.58371823500971
  0
ARC
  8
249
 62
50
  6
CONTINUOUS
 10
-0.66016881030386099
 20
-13.627411575313205
 40
0.44011254020258167
 50
240
 51
312.11461043049587
  0
LINE
  8
249
 62
50
  6
CONTINUOUS
 10
-0.88022508040514702
 20
-14.008560215652748
 11
-0.8802250804051488
 21
-13.464630224827312
  0
LINE
  8
249
 62
50
  6
CONTINUOUS
 10
0.36502238659162117
 20
-13.953889195694146
 11
0.3650223865882381
 21
-13.464630224827312
  0
LINE
  8
249
 62
50
  6
CONTINUOUS
 10
-0.3650223865915812
 20
-13.953889195694146
 11
-0.36502238658820152
 21
-13.464630224827312
  0
LINE
  8
249
 62
50
  6
CONTINUOUS
 10
0.66016881030389984
 20
-14.067524115515781
 11
-0.66016881030385988
 21
-14.067524115515781
  0
LINE
  8
249
 62
5
  6
CONTINUOUS
 10
0.48231511255079274
 20
-13.424437298781415
 11
0.48231511255078674
 21
-11.503215433787489
  0
LINE
  8
249
 62
5
  6
CONTINUOUS
 10
0.48231511255078674
 20
-11.503215433787489
 11
0.39389067524981847
 21
-11.41479099648652
  0
LINE
  8
249
 62
5
  6
CONTINUOUS
 10
0.39389067524981847
 20
-11.41479099648652
 11
-0.39389067524979449
 21
-11.41479099648652
  0
LINE
  8
249
 62
5
  6
CONTINUOUS
 10
-0.39389067524979449
 20
-11.41479099648652
 11
-0.4823151125507622
 21
-11.503215433787489
  0
LINE
  8
249
 62
5
  6
CONTINUOUS
 10
-0.4823151125507622
 20
-11.503215433787489
 11
-0.48231511255075621
 21
-13.424437298781415
  0
LINE
  8
249
 62
5
  6
CONTINUOUS
 10
0.48231511255078674
 20
-11.503215433787489
 11
-0.4823151125507622
 21
-11.503215433787489
  0
LINE
  8
249
 62
50
  6
CONTINUOUS
 10
-0.8802250804051488
 20
-13.464630224827312
 11
0.88022508040518532
 21
-13.464630224827312
  0
LINE
  8
249
 62
50
  6
CONTINUOUS
 10
0.76366559487207786
 20
-13.464630224827312
 11
0.76366559487207786
 21
-13.424437298781415
  0
LINE
  8
249
 62
50
  6
CONTINUOUS
 10
-0.76366559487204133
 20
-13.424437298781415
 11
-0.76366559487204133
 21
-13.464630224827312
  0
LINE
  8
249
 62
5
  6
CONTINUOUS
 10
0.39389067524981847
 20
-11.41479099648652
 11
0.39389067524982474
 21
-13.424437298781415
  0
LINE
  8
249
 62
5
  6
CONTINUOUS
 10
-0.39389067524979449
 20
-11.41479099648652
 11
-0.39389067524978816
 21
-13.424437298781415
  0
ENDBLK
  0
BLOCK
  8
0
 62
50
  6
CONTINUOUS
  2
TELL_9
 70
0
 10
-3.0775867742716993e-010
 20
-10.450160771451133
  0
LINE
  8
0
 62
50
  6
CONTINUOUS
 10
2.5321543408915841
 20
-4.421221864500291
 11
2.5321543408915841
 21
-11.495176848578316
  0
LINE
  8
0
 62
50
  6
CONTINUOUS
 10
2.5321543408915841
 20
-13.086953668951269
 11
2.5321543408915841
 21
-16.479099678269652
  0
LINE
  8
0
 62
50
  6
CONTINUOUS
 10
-2.5321543408915477
 20
-16.479099678269652
 11
-2.5321543408915477
 21
-13.086953668951269
  0
LINE
  8
0
 62
50
  6
CONTINUOUS
 10
-2.5321543408915477
 20
-11.495176848578316
 11
-2.5321543408915477
 21
-4.421221864500291
  0
LINE
  8
0
 62
50
  6
CONTINUOUS
 10
-2.5321543408915477
 20
-16.479099678269652
 11
2.5321543408915841
 21
-16.479099678269652
  0
LINE
  8
0
 62
50
  6
CONTINUOUS
 10
-2.5321543408915477
 20
-4.421221864500291
 11
2.5321543408915841
 21
-4.421221864500291
  0
LINE
  8
0
 62
5
  6
CONTINUOUS
 10
-2.0498392286485503
 20
-16.479099678303648
 11
-2.0498392286485503
 21
-13.415379988525801
  0
LINE
  8
0
 62
5
  6
CONTINUOUS
 10
2.0498392280330329
 20
-4.4212218645342878
 11
2.0498392280330329
 21
-13.090162022280731
  0
LINE
  8
0
 62
5
  6
CONTINUOUS
 10
-2.0498392286485503
 20
-13.090162022280731
 11
-2.0498392286485503
 21
-4.4212218645342878
  0
LINE
  8
0
 62
5
  6
CONTINUOUS
 10
2.0498392280330329
 20
-13.415379988525801
 11
2.0498392280330329
 21
-16.479099678303648
  0
LINE
  8
0
 62
50
  6
CONTINUOUS
 10
1.969453376246711
 20
-13.424437298783243
 11
-1.9694533762512805
 21
-13.424437298781415
  0
LINE
  8
0
 62
50
  6
CONTINUOUS
 10
-2.6125401929856462
 20
-12.781350482048877
 11
-2.6125401929833436
 21
-11.495176848578316
  0
LINE
  8
0
 62
50
  6
CONTINUOUS
 10
-2.6125401929833436
 20
-11.495176848578316
 11
-2.2909967846161603
 21
-11.495176848578316
  0
LINE
  8
0
 62
50
  6
CONTINUOUS
 10
-2.2909967846161603
 20
-11.495176848578316
 11
-2.2909967846184633
 21
-12.781350482048877
  0
LINE
  8
0
 62
50
  6
CONTINUOUS
 10
-1.9694533762512805
 20
-13.102893890416059
 11
1.969453376246711
 21
-13.102893890414231
  0
LINE
  8
0
 62
50
  6
CONTINUOUS
 10
2.2909967846138941
 20
-12.781350482048877
 11
2.2909967846161972
 21
-11.495176848578316
  0
LINE
  8
0
 62
50
  6
CONTINUOUS
 10
2.2909967846161972
 20
-11.495176848578316
 11
2.61254019298338
 21
-11.495176848578316
  0
LINE
  8
0
 62
50
  6
CONTINUOUS
 10
2.61254019298338
 20
-11.495176848578316
 11
2.612540192981077
 21
-12.781350482048877
  0
LINE
  8
0
 62
50
  6
CONTINUOUS
 10
2.0096463022926088
 20
-9.0032154337344767
 11
2.0096463022949118
 21
-11.897106109039123
  0
LINE
  8
0
 62
50
  6
CONTINUOUS
 10
1.4469453376500387
 20
-12.459807073681693
 11
-1.4469453376546082
 21
-12.459807073679865
  0
LINE
  8
0
 62
50
  6
CONTINUOUS
 10
-2.0096463022971784
 20
-11.897106109039123
 11
-2.0096463022971784
 21
-9.0032154337344767
  0
LINE
  8
0
 62
50
  6
CONTINUOUS
 10
-1.4469453376546082
 20
-8.4405144690919052
 11
1.4469453376500387
 21
-8.4405144690919052
  0
LINE
  8
0
 62
50
  6
CONTINUOUS
 10
-1.6881028939299954
 20
-9.0032154337344767
 11
-1.6881028939299954
 21
-11.897106109039123
  0
LINE
  8
0
 62
50
  6
CONTINUOUS
 10
-1.4469453376546082
 20
-12.13826366531451
 11
1.4469453376500387
 21
-12.13826366531451
  0
LINE
  8
0
 62
50
  6
CONTINUOUS
 10
1.6881028939254259
 20
-11.897106109039123
 11
1.6881028939277289
 21
-9.0032154337344767
  0
LINE
  8
0
 62
50
  6
CONTINUOUS
 10
1.4469453376500387
 20
-8.7620578774590889
 11
-1.4469453376546082
 21
-8.7620578774572611
  0
CIRCLE
  8
0
 62
50
  6
CONTINUOUS
 10
5.4832879931242868e-014
 20
-5.6270096458773002
 40
0.50241157557379756
  0
CIRCLE
  8
0
 62
50
  6
CONTINUOUS
 10
5.4832879931242868e-014
 20
-15.273311896892533
 40
0.50241157557353033
  0
ARC
  8
0
 62
50
  6
CONTINUOUS
 10
-1.4469453376523052
 20
-9.0032154337326489
 40
0.24115755627538724
 50
90
 51
180.00000000043426
  0
ARC
  8
0
 62
50
  6
CONTINUOUS
 10
1.4469453376523234
 20
-9.0032154337326489
 40
0.24115755627538724
 50
359.99999999956577
 51
90
  0
ARC
  8
0
 62
50
  6
CONTINUOUS
 10
-1.4469453376546082
 20
-11.897106109037296
 40
0.24115755627538724
 50
180.00000000043426
 51
270
  0
ARC
  8
0
 62
50
  6
CONTINUOUS
 10
1.4469453376523234
 20
-11.897106109039123
 40
0.24115755627538724
 50
270
 51
0
  0
ARC
  8
0
 62
50
  6
CONTINUOUS
 10
-1.4469453376523052
 20
-11.897106109037296
 40
0.56270096464257024
 50
180.00000000018611
 51
270
  0
ARC
  8
0
 62
50
  6
CONTINUOUS
 10
1.4469453376523234
 20
-11.897106109037296
 40
0.56270096464257024
 50
270
 51
359.99999999981389
  0
ARC
  8
0
 62
50
  6
CONTINUOUS
 10
-1.4469453376545898
 20
-9.0032154337326489
 40
0.56270096464257024
 50
90
 51
180.00000000018611
  0
ARC
  8
0
 62
50
  6
CONTINUOUS
 10
1.4469453376523234
 20
-9.0032154337344767
 40
0.56270096464257024
 50
0
 51
90
  0
LINE
  8
0
 62
5
  6
DASHDOT
 10
-0.60289389068817567
 20
-15.273311896892533
 11
0.60289389068828536
 21
-15.273311896892533
  0
LINE
  8
0
 62
5
  6
DASHDOT
 10
-0.60289389068850463
 20
-5.6270096458773002
 11
0.60289389068861432
 21
-5.6270096458773002
  0
INSERT
  8
249
 62
5
  6
DASHDOT
  2
TELL_10
 10
-3.0775867742742248e-010
 20
-13.424437298815411
 41
1.0
 42
1.0
 50
0.0
  0
LINE
  8
0
 62
5
  6
DASHDOT
 10
1.8277626643747623e-014
 20
-16.720257234545041
 11
1.8277626643747623e-014
 21
-4.180064308224904
  0
ARC
  8
0
 62
50
  6
CONTINUOUS
 10
1.9694533762490141
 20
-12.781350482047049
 40
0.32154340836718298
 50
270
 51
359.99999999967429
  0
ARC
  8
0
 62
50
  6
CONTINUOUS
 10
-1.9694533762489774
 20
-12.781350482047049
 40
0.32154340836718298
 50
180.00000000032568
 51
270
  0
ARC
  8
0
 62
50
  6
CONTINUOUS
 10
-1.9694533762489774
 20
-12.781350482047049
 40
0.64308681673436596
 50
180.00000000016286
 51
270
  0
ARC
  8
0
 62
50
  6
CONTINUOUS
 10
1.9694533762490141
 20
-12.781350482047049
 40
0.64308681673436596
 50
270
 51
359.99999999983714
  0
ENDBLK
  0
ENDSEC
  0
SECTION
  2
ENTITIES
  0
INSERT
  8
0
 62
50
  6
CONTINUOUS
  2
TELL_1
 10
-3.0775867742716993e-010
 20
-2.8937138502403344e-010
 41
1.0
 42
1.0
 50
0.0
  0
INSERT
  8
0
 62
50
  6
CONTINUOUS
  2
3_51_CRE
 10
13.531464119750243
 20
-2.8937138502403344e-010
 41
1.0
 42
1.0
 50
0.0
  0
INSERT
  8
0
 62
50
  6
CONTINUOUS
  2
TELL_9
 10
-3.0775867742716993e-010
 20
-10.450160771451133
 41
1.0
 42
1.0
 50
0.0
  0
ENDSEC
  0
EOF
