  0
SECTION
  2
HEADER
  9
$ACADVER
  1
AC1009
  9
$EXTMIN
 10
-2.4321266968523783
 20
-17.873303167360579
  9
$EXTMAX
 10
18.269230769413699
 20
7.1266968326394222
  9
$TEXTSTYLE
  7
STANDARD
  9
$DIMLFAC
 40
1
  9
$REGENMODE
 70
1
  9
$DRAGMODE
 70
2
  9
$DIMASO
 70
1
  9
$LTSCALE
 40
1.0000000000
  0
ENDSEC
  0
SECTION
  2
TABLES
  0
TABLE
  2
LTYPE
 70
2
  0
LTYPE
  2
CONTINUOUS
 70
64
  3
CONTINUOUS
 72
65
 73
0
 40
0.0000000000
  0
LTYPE
  2
DASHDOT
 70
64
  3
DASHDOT
 72
65
 73
4
 40
1.0000000000
 49
0.5000000000
 49
-0.2500000000
 49
0.0000000000
 49
-0.2500000000
  0
ENDTAB
  0
TABLE
  2
LAYER
 70
1
  0
LAYER
  2
0
 70
0
 62
2
  6
CONTINUOUS
  0
ENDTAB
  0
TABLE
  2
STYLE
 70
0
  0
STYLE
  2
Standard
 70
0
 40
0
 41
1
 50
0
 71
0
 42
2.5
  3
txt
  4

  0
ENDTAB
  0
ENDSEC
  0
SECTION
  2
BLOCKS
  0
BLOCK
  8
0
 62
5
  6
DASHDOT
  2
TELL_2
 70
0
 10
0
 20
5.4298642534405639
  0
LINE
  8
0
 62
50
  6
CONTINUOUS
 10
0
 20
6.540153232660094
 11
-0.96153846154601952
 21
5.9850087430503294
  0
LINE
  8
0
 62
50
  6
CONTINUOUS
 10
-0.96153846154601952
 20
5.9850087430503294
 11
-0.96153846154601952
 21
4.8747197638307984
  0
LINE
  8
0
 62
50
  6
CONTINUOUS
 10
-0.96153846154601952
 20
4.8747197638307984
 11
0
 21
4.3195752742210338
  0
LINE
  8
0
 62
50
  6
CONTINUOUS
 10
0
 20
4.3195752742210338
 11
0.96153846154601952
 21
4.8747197638307984
  0
LINE
  8
0
 62
50
  6
CONTINUOUS
 10
0.96153846154601952
 20
4.8747197638307984
 11
0.96153846154601952
 21
5.9850087430503294
  0
LINE
  8
0
 62
50
  6
CONTINUOUS
 10
0.96153846154601952
 20
5.9850087430503294
 11
0
 21
6.540153232660094
  0
CIRCLE
  8
0
 62
50
  6
CONTINUOUS
 10
0
 20
5.4298642534405639
 40
0.96153846154601974
  0
LINE
  8
0
 62
5
  6
DASHDOT
 10
0
 20
4.0933309303278529
 11
0
 21
6.7663975765532758
  0
LINE
  8
0
 62
5
  6
DASHDOT
 10
-1.3365333231127243
 20
5.4298642534405639
 11
1.3365333231127243
 21
5.4298642534405639
  0
ENDBLK
  0
BLOCK
  8
0
 62
140
  6
CONTINUOUS
  2
TELL_3
 70
0
 10
-1.1124334234159598e-011
 20
0.58903922864658165
  0
LINE
  8
0
 62
50
  6
CONTINUOUS
 10
-2.0459034431930263
 20
0.27310108171627223
 11
-1.4140271493323817
 21
0.90497737557694258
  0
LINE
  8
0
 62
50
  6
CONTINUOUS
 10
-1.4140271493323817
 20
0.90497737557694258
 11
1.4140271493323817
 21
0.90497737557694258
  0
LINE
  8
0
 62
50
  6
CONTINUOUS
 10
1.4140271493323817
 20
0.90497737557694258
 11
2.0459034431723464
 21
0.27310108173695197
  0
ARC
  8
0
 62
50
  6
CONTINUOUS
 10
1.7533936651721533
 20
-0.33936651583555338
 40
0.67873303167954213
 50
64.471220636279796
 51
90
  0
LINE
  8
0
 62
50
  6
CONTINUOUS
 10
1.7533936651721533
 20
0.33936651584398986
 11
-1.7533936651721533
 21
0.33936651584398986
  0
ARC
  8
0
 62
50
  6
CONTINUOUS
 10
-1.7533936651721533
 20
-0.33936651583555338
 40
0.67873303167954246
 50
90
 51
115.52877936626274
  0
ENDBLK
  0
BLOCK
  8
0
 62
50
  6
CONTINUOUS
  2
TELL_1
 70
0
 10
4.4561639446662437e-011
 20
-1.9229022597590092e-010
  0
LINE
  8
0
 62
50
  6
CONTINUOUS
 10
2.3190045249051061
 20
7.0135746606928313
 11
2.3190045249051061
 21
3.8461538461882965
  0
LINE
  8
0
 62
50
  6
CONTINUOUS
 10
-2.319004524905119
 20
3.8461538461882965
 11
-2.319004524905119
 21
7.0135746606928313
  0
LINE
  8
0
 62
50
  6
CONTINUOUS
 10
-1.4140271493323817
 20
7.1266968326394222
 11
1.4140271493323817
 21
7.1266968326394222
  0
LINE
  8
0
 62
50
  6
CONTINUOUS
 10
1.4140271493323817
 20
7.1266968326394222
 11
1.4140271493323817
 21
7.0135746606928313
  0
LINE
  8
0
 62
50
  6
CONTINUOUS
 10
-1.4140271493323817
 20
0.90497737557694258
 11
-1.4140271493323817
 21
3.8461538461882965
  0
LINE
  8
0
 62
50
  6
CONTINUOUS
 10
1.4140271493323817
 20
3.8461538461882965
 11
1.4140271493323817
 21
0.90497737557694258
  0
LINE
  8
0
 62
50
  6
CONTINUOUS
 10
-1.4140271493323817
 20
7.0135746606928313
 11
-1.4140271493323817
 21
7.1266968326394222
  0
LINE
  8
0
 62
50
  6
CONTINUOUS
 10
-2.319004524905119
 20
3.8461538461882965
 11
2.3190045249051061
 21
3.8461538461882965
  0
LINE
  8
0
 62
5
  6
CONTINUOUS
 10
1.5837104072129273
 20
6.9004524887462413
 11
1.5837104072129273
 21
3.9592760181348869
  0
LINE
  8
0
 62
5
  6
CONTINUOUS
 10
-1.5837104072916077
 20
3.9592760181348869
 11
-1.5837104072916077
 21
6.9004524887462413
  0
LINE
  8
0
 62
50
  6
CONTINUOUS
 10
-2.319004524905119
 20
7.0135746606928313
 11
2.3190045249051061
 21
7.0135746606928313
  0
INSERT
  8
0
 62
5
  6
DASHDOT
  2
TELL_2
 10
0
 20
5.4298642534405639
 41
1.0
 42
1.0
 50
0.0
  0
LINE
  8
0
 62
5
  6
DASHDOT
 10
0
 20
-0.56561085972873448
 11
0
 21
1.2443438914167142
  0
INSERT
  8
0
 62
140
  6
CONTINUOUS
  2
TELL_3
 10
-1.1124334234159598e-011
 20
0.58903922864658165
 41
1.0
 42
1.0
 50
0.0
  0
LINE
  8
0
 62
50
  6
CONTINUOUS
 10
-2.0459034431930263
 20
0.27310108171627223
 11
-1.4140271493323817
 21
0.90497737557694258
  0
LINE
  8
0
 62
50
  6
CONTINUOUS
 10
1.4140271493323817
 20
0.90497737557694258
 11
2.0459034431723464
 21
0.27310108173695197
  0
LINE
  8
0
 62
50
  6
CONTINUOUS
 10
-1.4140271493323817
 20
0.90497737557694258
 11
1.4140271493323817
 21
0.90497737557694258
  0
LINE
  8
0
 62
50
  6
CONTINUOUS
 10
-2.0927601810119247
 20
-1.6968325791946397
 11
-2.0927601810126064
 21
-0.33936651583977162
  0
LINE
  8
0
 62
50
  6
CONTINUOUS
 10
-2.0927601810119247
 20
-1.6968325791946397
 11
-2.4321266968516966
 21
-1.6968325791946397
  0
LINE
  8
0
 62
50
  6
CONTINUOUS
 10
2.4321266968516966
 20
-1.6968325791946397
 11
2.0927601810119247
 21
-1.6968325791946397
  0
LINE
  8
0
 62
50
  6
CONTINUOUS
 10
-1.753393665172835
 20
0.33936651583977162
 11
1.7533936651714717
 21
0.33936651583977162
  0
LINE
  8
0
 62
50
  6
CONTINUOUS
 10
2.4321266968516966
 20
-1.6968325791946397
 11
2.4321266968510149
 21
-0.33936651583977162
  0
LINE
  8
0
 62
50
  6
CONTINUOUS
 10
2.4321266968516966
 20
-0.56561085972873448
 11
2.0927601810119247
 21
-0.56561085972873448
  0
LINE
  8
0
 62
50
  6
CONTINUOUS
 10
2.0927601810119247
 20
-1.6968325791946397
 11
2.0927601810112435
 21
-0.33936651583977162
  0
LINE
  8
0
 62
50
  6
CONTINUOUS
 10
1.7533936651714717
 20
0
 11
-1.753393665172835
 21
4.2182446575772812e-012
  0
LINE
  8
0
 62
50
  6
CONTINUOUS
 10
-2.0927601810119247
 20
-0.56561085972873448
 11
-2.4321266968516966
 21
-0.56561085972873448
  0
LINE
  8
0
 62
50
  6
CONTINUOUS
 10
-2.4321266968516966
 20
-1.6968325791946397
 11
-2.4321266968523783
 21
-0.33936651583977162
  0
ARC
  8
0
 62
50
  6
CONTINUOUS
 10
-1.7533936651721533
 20
-0.33936651583555338
 40
0.33936651583977162
 50
90
 51
180.00000000071216
  0
ARC
  8
0
 62
50
  6
CONTINUOUS
 10
1.7533936651721533
 20
-0.33936651583555338
 40
0.33936651583977162
 50
359.99999999928781
 51
90
  0
ARC
  8
0
 62
50
  6
CONTINUOUS
 10
-1.7533936651721405
 20
-0.33936651583555338
 40
0.67873303167954324
 50
90
 51
180.0000000003561
  0
ARC
  8
0
 62
50
  6
CONTINUOUS
 10
1.7533936651721533
 20
-0.33936651583977162
 40
0.67873303167954324
 50
0
 51
90
  0
ENDBLK
  0
BLOCK
  8
0
 62
140
  6
CONTINUOUS
  2
TELL_4
 70
0
 10
14.253393665279525
 20
0.58860910538880085
  0
LINE
  8
0
 62
50
  6
CONTINUOUS
 10
14.42307692322966
 20
0.90497737557694258
 11
14.988687782962613
 21
0.33936651584398986
  0
LINE
  8
0
 62
50
  6
CONTINUOUS
 10
14.988687782962613
 20
0.33936651585067729
 11
14.873305809352221
 21
0.33936651584398986
  0
LINE
  8
0
 62
50
  6
CONTINUOUS
 10
14.873305785941657
 20
0.33936651584398986
 11
14.85902634241908
 21
0.33588582598689137
  0
LINE
  8
0
 62
50
  6
CONTINUOUS
 10
14.859026341808541
 20
0.3358858267838824
 11
14.795483659276655
 21
0.32561534302532646
  0
LINE
  8
0
 62
50
  6
CONTINUOUS
 10
14.795483658826564
 20
0.32561534372550366
 11
14.71706161728437
 21
0.3170079874675204
  0
LINE
  8
0
 62
50
  6
CONTINUOUS
 10
14.717061617004088
 20
0.31700798802808394
 11
14.706351578157955
 21
0.31623924861916008
  0
LINE
  8
0
 62
50
  6
CONTINUOUS
 10
14.706351578157955
 20
0.31623924861916008
 11
14.67983356514881
 21
0.30683602898851764
  0
LINE
  8
0
 62
50
  6
CONTINUOUS
 10
14.679833624901866
 20
0.30683602898851764
 11
14.630766186295073
 21
0.29321476947508773
  0
LINE
  8
0
 62
50
  6
CONTINUOUS
 10
14.63076618659372
 20
0.29321476816835784
 11
14.530333518624071
 21
0.27761514705316398
  0
LINE
  8
0
 62
50
  6
CONTINUOUS
 10
14.530333518624071
 20
0.27761514705316398
 11
14.42307692322966
 21
0.27224083520071063
  0
LINE
  8
0
 62
50
  6
CONTINUOUS
 10
14.42307692322966
 20
0.27224083520071063
 11
13.518099547656934
 21
0.27224083520071063
  0
LINE
  8
0
 62
50
  6
CONTINUOUS
 10
13.518099547596453
 20
0.27224083520374576
 11
13.518099547617556
 21
0.90497737553753799
  0
LINE
  8
0
 62
50
  6
CONTINUOUS
 10
13.518099547656934
 20
0.90497737557694258
 11
14.42307692322966
 21
0.90497737557694258
  0
ENDBLK
  0
BLOCK
  8
0
 62
5
  6
DASHDOT
  2
TELL_5
 70
0
 10
14.988687782923247
 20
5.4298642532440375
  0
LINE
  8
0
 62
50
  6
CONTINUOUS
 10
15.045248868896502
 20
4.3212669683639557
 11
15.706281049732436
 21
4.3212669683639557
  0
ARC
  8
0
 62
50
  6
CONTINUOUS
 10
15.226244344011038
 20
4.5984162896331338
 40
0.55429864253829364
 50
330
 51
42.459739059956519
  0
ARC
  8
0
 62
50
  6
CONTINUOUS
 10
14.988687782923208
 20
5.4298642534405639
 40
0.79185520362613371
 50
324.72863805591317
 51
35.271361944086834
  0
ARC
  8
0
 62
50
  6
CONTINUOUS
 10
15.226244344011089
 20
6.261312217247994
 40
0.55429864253829364
 50
317.54026094004348
 51
30
  0
LINE
  8
0
 62
50
  6
CONTINUOUS
 10
15.706281049732436
 20
6.538461538517172
 11
15.045248868896502
 21
6.538461538517172
  0
LINE
  8
0
 62
50
  6
CONTINUOUS
 10
15.635179211013257
 20
4.9726077642401227
 11
15.045248868896502
 21
4.9726077642401227
  0
LINE
  8
0
 62
50
  6
CONTINUOUS
 10
15.635179211013257
 20
5.887120742641005
 11
15.045248868896502
 21
5.887120742641005
  0
LINE
  8
0
 62
50
  6
CONTINUOUS
 10
15.780542986549341
 20
4.5984162896331338
 11
15.780542986549341
 21
6.261312217247994
  0
LINE
  8
0
 62
5
  6
CONTINUOUS
 10
14.988687782923208
 20
4.8642533937076111
 11
12.833710407340689
 21
4.8642533937076111
  0
LINE
  8
0
 62
5
  6
CONTINUOUS
 10
12.833710407340689
 20
4.8642533937076111
 11
12.726244343991397
 21
4.9717194570568521
  0
LINE
  8
0
 62
5
  6
CONTINUOUS
 10
12.726244343991397
 20
4.9717194570568521
 11
12.726244343991397
 21
5.8880090498242765
  0
LINE
  8
0
 62
5
  6
CONTINUOUS
 10
12.726244343991397
 20
5.8880090498242765
 11
12.833710407340689
 21
5.9954751131735167
  0
LINE
  8
0
 62
5
  6
CONTINUOUS
 10
12.833710407340689
 20
5.9954751131735167
 11
14.988687782923208
 21
5.9954751131735167
  0
LINE
  8
0
 62
5
  6
CONTINUOUS
 10
12.833710407340689
 20
4.8642533937076111
 11
12.833710407340689
 21
5.9954751131735167
  0
LINE
  8
0
 62
50
  6
CONTINUOUS
 10
15.045248868896502
 20
6.538461538517172
 11
15.045248868896502
 21
4.3212669683639557
  0
LINE
  8
0
 62
50
  6
CONTINUOUS
 10
15.045248868896502
 20
4.4683257918945447
 11
14.988687782923208
 21
4.4683257918945447
  0
LINE
  8
0
 62
50
  6
CONTINUOUS
 10
14.988687782923208
 20
6.3914027149865831
 11
15.045248868896502
 21
6.3914027149865831
  0
LINE
  8
0
 62
5
  6
CONTINUOUS
 10
12.726244343991397
 20
4.9717194570568521
 11
14.988687782923208
 21
4.9717194570568521
  0
LINE
  8
0
 62
5
  6
CONTINUOUS
 10
12.726244343991397
 20
5.8880090498242765
 11
14.988687782923208
 21
5.8880090498242765
  0
ENDBLK
  0
BLOCK
  8
0
 62
140
  6
CONTINUOUS
  2
TELL_6
 70
0
 10
10.972850678810138
 20
0.58860910538880085
  0
LINE
  8
0
 62
50
  6
CONTINUOUS
 10
10.803167420860005
 20
0.90497737557694213
 11
10.237556561127052
 21
0.33936651584398869
  0
LINE
  8
0
 62
50
  6
CONTINUOUS
 10
10.237556561127052
 20
0.33936651585067618
 11
10.352938534737444
 21
0.33936651584398903
  0
LINE
  8
0
 62
50
  6
CONTINUOUS
 10
10.352938558148008
 20
0.33936651584398903
 11
10.367218001670583
 21
0.33588582598689054
  0
LINE
  8
0
 62
50
  6
CONTINUOUS
 10
10.367218002281122
 20
0.33588582678388157
 11
10.430760684813007
 21
0.32561534302532563
  0
LINE
  8
0
 62
50
  6
CONTINUOUS
 10
10.430760685263099
 20
0.32561534372550283
 11
10.509182726805294
 21
0.31700798746751968
  0
LINE
  8
0
 62
50
  6
CONTINUOUS
 10
10.509182727085575
 20
0.31700798802808322
 11
10.51989276593171
 21
0.31623924861915931
  0
LINE
  8
0
 62
50
  6
CONTINUOUS
 10
10.51989276593171
 20
0.31623924861915931
 11
10.546410778940853
 21
0.30683602898851703
  0
LINE
  8
0
 62
50
  6
CONTINUOUS
 10
10.546410719187797
 20
0.30683602898851703
 11
10.59547815779459
 21
0.29321476947508712
  0
LINE
  8
0
 62
50
  6
CONTINUOUS
 10
10.595478157495943
 20
0.29321476816835723
 11
10.695910825465594
 21
0.27761514705316359
  0
LINE
  8
0
 62
50
  6
CONTINUOUS
 10
10.695910825465594
 20
0.27761514705316359
 11
10.803167420860005
 21
0.2722408352007103
  0
LINE
  8
0
 62
50
  6
CONTINUOUS
 10
10.803167420860005
 20
0.2722408352007103
 11
11.708144796432729
 21
0.27224083520071179
  0
LINE
  8
0
 62
50
  6
CONTINUOUS
 10
11.708144796493212
 20
0.27224083520374687
 11
11.708144796472107
 21
0.9049773755375391
  0
LINE
  8
0
 62
50
  6
CONTINUOUS
 10
11.708144796432729
 20
0.90497737557694369
 11
10.803167420860005
 21
0.90497737557694213
  0
ENDBLK
  0
BLOCK
  8
0
 62
5
  6
DASHDOT
  2
TELL_7
 70
0
 10
10.237556561121195
 20
5.4298642532440375
  0
LINE
  8
0
 62
50
  6
CONTINUOUS
 10
10.180995475193164
 20
4.3212669683639557
 11
9.519963294357229
 21
4.3212669683639549
  0
ARC
  8
0
 62
50
  6
CONTINUOUS
 10
10.000000000078627
 20
4.5984162896331338
 40
0.55429864253829364
 50
137.54026094004348
 51
210
  0
ARC
  8
0
 62
50
  6
CONTINUOUS
 10
10.237556561166457
 20
5.4298642534405639
 40
0.79185520362613371
 50
144.72863805591317
 51
215.27136194408683
  0
ARC
  8
0
 62
50
  6
CONTINUOUS
 10
10.000000000078575
 20
6.261312217247994
 40
0.55429864253829364
 50
150
 51
222.45973905995652
  0
LINE
  8
0
 62
50
  6
CONTINUOUS
 10
9.519963294357229
 20
6.5384615385171703
 11
10.180995475193157
 21
6.538461538517172
  0
LINE
  8
0
 62
50
  6
CONTINUOUS
 10
9.5910651330764072
 20
4.9726077642401219
 11
10.180995475193161
 21
4.9726077642401227
  0
LINE
  8
0
 62
50
  6
CONTINUOUS
 10
9.5910651330764072
 20
5.8871207426410033
 11
10.180995475193161
 21
5.887120742641005
  0
LINE
  8
0
 62
50
  6
CONTINUOUS
 10
9.4457013575403224
 20
4.598416289633132
 11
9.4457013575403224
 21
6.2613122172479923
  0
LINE
  8
0
 62
5
  6
CONTINUOUS
 10
10.237556561166457
 20
4.8642533937076111
 11
12.392533936748976
 21
4.8642533937076147
  0
LINE
  8
0
 62
5
  6
CONTINUOUS
 10
12.392533936748976
 20
4.8642533937076147
 11
12.500000000098266
 21
4.9717194570568548
  0
LINE
  8
0
 62
5
  6
CONTINUOUS
 10
12.500000000098266
 20
4.9717194570568548
 11
12.500000000098266
 21
5.8880090498242792
  0
LINE
  8
0
 62
5
  6
CONTINUOUS
 10
12.500000000098266
 20
5.8880090498242792
 11
12.392533936748976
 21
5.9954751131735202
  0
LINE
  8
0
 62
5
  6
CONTINUOUS
 10
12.392533936748976
 20
5.9954751131735202
 11
10.237556561166457
 21
5.9954751131735167
  0
LINE
  8
0
 62
5
  6
CONTINUOUS
 10
12.392533936748976
 20
4.8642533937076147
 11
12.392533936748976
 21
5.9954751131735202
  0
LINE
  8
0
 62
50
  6
CONTINUOUS
 10
10.180995475193157
 20
6.538461538517172
 11
10.180995475193164
 21
4.3212669683639557
  0
LINE
  8
0
 62
50
  6
CONTINUOUS
 10
10.180995475193161
 20
4.4683257918945447
 11
10.237556561166457
 21
4.4683257918945447
  0
LINE
  8
0
 62
50
  6
CONTINUOUS
 10
10.237556561166457
 20
6.3914027149865831
 11
10.180995475193161
 21
6.3914027149865831
  0
LINE
  8
0
 62
5
  6
CONTINUOUS
 10
12.500000000098266
 20
4.9717194570568548
 11
10.237556561166457
 21
4.9717194570568521
  0
LINE
  8
0
 62
5
  6
CONTINUOUS
 10
12.500000000098266
 20
5.8880090498242792
 11
10.237556561166457
 21
5.8880090498242765
  0
ENDBLK
  0
BLOCK
  8
0
 62
50
  6
CONTINUOUS
  2
3_51_CKEDB
 70
0
 10
12.613122172044845
 20
-1.9229022597549338e-010
  0
INSERT
  8
0
 62
140
  6
CONTINUOUS
  2
TELL_4
 10
14.253393665279525
 20
0.58860910538880085
 41
1.0
 42
1.0
 50
0.0
  0
LINE
  8
0
 62
50
  6
CONTINUOUS
 10
14.42307692319028
 20
7.1266968326394222
 11
13.518099547617556
 21
7.1266968326394222
  0
LINE
  8
0
 62
50
  6
CONTINUOUS
 10
13.518099547617556
 20
7.1266968326394222
 11
13.518099547617556
 21
0.90497737557694258
  0
LINE
  8
0
 62
50
  6
CONTINUOUS
 10
14.42307692319028
 20
0.90497737557694258
 11
14.42307692319028
 21
3.8461538461882965
  0
LINE
  8
0
 62
50
  6
CONTINUOUS
 10
14.42307692319028
 20
7.0135746606928313
 11
14.42307692319028
 21
7.1266968326394222
  0
LINE
  8
0
 62
50
  6
CONTINUOUS
 10
14.988687782923233
 20
3.8461538461882965
 11
14.988687782923233
 21
7.0135746606928313
  0
LINE
  8
0
 62
50
  6
CONTINUOUS
 10
14.988687782923233
 20
7.0135746606928313
 11
13.970588235403918
 21
7.0135746606928313
  0
LINE
  8
0
 62
50
  6
CONTINUOUS
 10
13.970588235403918
 20
7.0135746606928313
 11
13.970588235403918
 21
3.8461538461882965
  0
LINE
  8
0
 62
50
  6
CONTINUOUS
 10
14.988687782923233
 20
3.8461538461882965
 11
13.970588235403918
 21
3.8461538461882965
  0
INSERT
  8
0
 62
5
  6
DASHDOT
  2
TELL_5
 10
14.988687782923247
 20
5.4298642532440375
 41
1.0
 42
1.0
 50
0.0
  0
LINE
  8
0
 62
50
  6
CONTINUOUS
 10
14.42307692322966
 20
0.90497737557694258
 11
14.988687782962613
 21
0.33936651584398986
  0
LINE
  8
0
 62
50
  6
CONTINUOUS
 10
14.873305785941657
 20
0.33936651584398986
 11
14.85902634241908
 21
0.33588582598689137
  0
LINE
  8
0
 62
50
  6
CONTINUOUS
 10
14.859026341808541
 20
0.3358858267838824
 11
14.795483659276655
 21
0.32561534302532646
  0
LINE
  8
0
 62
50
  6
CONTINUOUS
 10
14.795483658826564
 20
0.32561534372550366
 11
14.71706161728437
 21
0.3170079874675204
  0
LINE
  8
0
 62
50
  6
CONTINUOUS
 10
14.717061617004088
 20
0.31700798802808394
 11
14.706351578157955
 21
0.31623924861916008
  0
LINE
  8
0
 62
50
  6
CONTINUOUS
 10
14.706351578157955
 20
0.31623924861916008
 11
14.67983356514881
 21
0.30683602898851764
  0
LINE
  8
0
 62
50
  6
CONTINUOUS
 10
13.518099547656934
 20
0.90497737557694258
 11
14.42307692322966
 21
0.90497737557694258
  0
LINE
  8
0
 62
50
  6
CONTINUOUS
 10
6.9570135747546455
 20
0.33936651604049833
 11
13.518099547617556
 21
0.33936651604049833
  0
LINE
  8
0
 62
50
  6
CONTINUOUS
 10
14.873305809352221
 20
0.33936651584398986
 11
14.988687782962613
 21
0.33936651585067729
  0
LINE
  8
0
 62
50
  6
CONTINUOUS
 10
14.988687782962613
 20
0.33936651585067729
 11
18.269230769413699
 21
0.33936651604049833
  0
LINE
  8
0
 62
50
  6
CONTINUOUS
 10
14.679833624901866
 20
0.30683602898851764
 11
14.630766186295073
 21
0.29321476947508773
  0
LINE
  8
0
 62
50
  6
CONTINUOUS
 10
13.518099547656934
 20
0.27224083520071063
 11
14.42307692322966
 21
0.27224083520071063
  0
LINE
  8
0
 62
50
  6
CONTINUOUS
 10
14.42307692322966
 20
0.27224083520071063
 11
14.530333518624071
 21
0.27761514705316398
  0
LINE
  8
0
 62
50
  6
CONTINUOUS
 10
14.530333518624071
 20
0.27761514705316398
 11
14.63076618659372
 21
0.29321476816835784
  0
LINE
  8
0
 62
50
  6
CONTINUOUS
 10
18.269230769413699
 20
-0.56561085953222601
 11
18.269230769413699
 21
0.33936651604049833
  0
LINE
  8
0
 62
50
  6
CONTINUOUS
 10
6.9570135747546455
 20
-0.56561085953222601
 11
6.9570135747546455
 21
0.33936651604049833
  0
LINE
  8
0
 62
5
  6
CONTINUOUS
 10
6.9570135747152921
 20
-0.33936651603206186
 11
18.269230769374346
 21
-0.33936651603206186
  0
LINE
  8
0
 62
50
  6
CONTINUOUS
 10
18.269230769413699
 20
-0.56561085953222601
 11
17.616119605166904
 21
-1.6968325789981313
  0
LINE
  8
0
 62
50
  6
CONTINUOUS
 10
17.616119605166904
 20
-1.6968325789981313
 11
7.6101247390014404
 21
-1.6968325789981313
  0
LINE
  8
0
 62
50
  6
CONTINUOUS
 10
7.6101247390014404
 20
-1.6968325789981313
 11
6.9570135747546455
 21
-0.56561085953222601
  0
LINE
  8
0
 62
5
  6
DASHDOT
 10
8.4276018100603221
 20
-0.56561085953222601
 11
8.4276018100603221
 21
0.6498422831667513
  0
LINE
  8
0
 62
5
  6
DASHDOT
 10
16.798642534108033
 20
-0.56561085953222601
 11
16.798642534108033
 21
0.6498422831667513
  0
LINE
  8
0
 62
50
  6
CONTINUOUS
 10
13.518099547617556
 20
0.90497737553753799
 11
13.518099547596453
 21
0.27224083520374576
  0
INSERT
  8
0
 62
140
  6
CONTINUOUS
  2
TELL_6
 10
10.972850678810138
 20
0.58860910538880085
 41
1.0
 42
1.0
 50
0.0
  0
LINE
  8
0
 62
50
  6
CONTINUOUS
 10
10.803167420899383
 20
7.1266968326394222
 11
11.708144796472107
 21
7.1266968326394222
  0
LINE
  8
0
 62
50
  6
CONTINUOUS
 10
11.708144796472107
 20
7.1266968326394222
 11
11.708144796472107
 21
0.90497737557694258
  0
LINE
  8
0
 62
50
  6
CONTINUOUS
 10
10.803167420899383
 20
0.90497737557694258
 11
10.803167420899383
 21
3.8461538461882965
  0
LINE
  8
0
 62
50
  6
CONTINUOUS
 10
10.803167420899383
 20
7.0135746606928313
 11
10.803167420899383
 21
7.1266968326394222
  0
LINE
  8
0
 62
50
  6
CONTINUOUS
 10
10.23755656116643
 20
3.8461538461882965
 11
10.23755656116643
 21
7.0135746606928313
  0
LINE
  8
0
 62
50
  6
CONTINUOUS
 10
10.23755656116643
 20
7.0135746606928313
 11
11.255656108685745
 21
7.0135746606928313
  0
LINE
  8
0
 62
50
  6
CONTINUOUS
 10
11.255656108685745
 20
7.0135746606928313
 11
11.255656108685745
 21
3.8461538461882965
  0
LINE
  8
0
 62
50
  6
CONTINUOUS
 10
10.23755656116643
 20
3.8461538461882965
 11
11.255656108685745
 21
3.8461538461882965
  0
INSERT
  8
0
 62
5
  6
DASHDOT
  2
TELL_7
 10
10.237556561121195
 20
5.4298642532440375
 41
1.0
 42
1.0
 50
0.0
  0
LINE
  8
0
 62
50
  6
CONTINUOUS
 10
10.803167420860005
 20
0.90497737557694258
 11
10.237556561127052
 21
0.33936651584398986
  0
LINE
  8
0
 62
50
  6
CONTINUOUS
 10
10.352938558148008
 20
0.33936651584398986
 11
10.367218001670583
 21
0.33588582598689137
  0
LINE
  8
0
 62
50
  6
CONTINUOUS
 10
10.367218002281122
 20
0.3358858267838824
 11
10.430760684813007
 21
0.32561534302532646
  0
LINE
  8
0
 62
50
  6
CONTINUOUS
 10
10.430760685263099
 20
0.32561534372550366
 11
10.509182726805294
 21
0.3170079874675204
  0
LINE
  8
0
 62
50
  6
CONTINUOUS
 10
10.509182727085575
 20
0.31700798802808394
 11
10.51989276593171
 21
0.31623924861916008
  0
LINE
  8
0
 62
50
  6
CONTINUOUS
 10
10.51989276593171
 20
0.31623924861916008
 11
10.546410778940853
 21
0.30683602898851764
  0
LINE
  8
0
 62
50
  6
CONTINUOUS
 10
11.708144796432729
 20
0.90497737557694258
 11
10.803167420860005
 21
0.90497737557694258
  0
LINE
  8
0
 62
50
  6
CONTINUOUS
 10
10.352938534737444
 20
0.33936651584398986
 11
10.237556561127052
 21
0.33936651585067729
  0
LINE
  8
0
 62
50
  6
CONTINUOUS
 10
10.546410719187797
 20
0.30683602898851764
 11
10.59547815779459
 21
0.29321476947508773
  0
LINE
  8
0
 62
50
  6
CONTINUOUS
 10
11.708144796432729
 20
0.27224083520071063
 11
10.803167420860005
 21
0.27224083520071063
  0
LINE
  8
0
 62
50
  6
CONTINUOUS
 10
10.803167420860005
 20
0.27224083520071063
 11
10.695910825465594
 21
0.27761514705316398
  0
LINE
  8
0
 62
50
  6
CONTINUOUS
 10
10.695910825465594
 20
0.27761514705316398
 11
10.595478157495943
 21
0.29321476816835784
  0
LINE
  8
0
 62
50
  6
CONTINUOUS
 10
11.708144796472107
 20
0.90497737553753799
 11
11.708144796493212
 21
0.27224083520374576
  0
LINE
  8
0
 62
5
  6
DASHDOT
 10
9.2194570136471423
 20
5.4298642534405639
 11
16.006787330442521
 21
5.4298642534405639
  0
LINE
  8
0
 62
5
  6
CONTINUOUS
 10
10.916289592845974
 20
3.9592760181348869
 11
10.916289592845974
 21
6.9004524887462413
  0
LINE
  8
0
 62
5
  6
CONTINUOUS
 10
14.309954751243691
 20
3.9592760181348869
 11
14.309954751243691
 21
6.9004524887462413
  0
ENDBLK
  0
BLOCK
  8
0
 62
5
  6
DASHDOT
  2
TELL_9
 70
0
 10
-3.9353136134698465e-011
 20
-14.253393665496651
  0
LINE
  8
0
 62
50
  6
CONTINUOUS
 10
1.1085972850765693
 20
-14.309954751239484
 11
1.1085972850765693
 21
-14.970986932075418
  0
ARC
  8
0
 62
50
  6
CONTINUOUS
 10
0.83144796380741726
 20
-14.49095022635402
 40
0.55429864253829364
 50
227.54026094004348
 51
300
  0
ARC
  8
0
 62
50
  6
CONTINUOUS
 10
-1.2860502004808784e-014
 20
-14.25339366526619
 40
0.79185520362613371
 50
234.72863805591317
 51
305.27136194408683
  0
ARC
  8
0
 62
50
  6
CONTINUOUS
 10
-0.83144796380746877
 20
-14.49095022635402
 40
0.55429864253829364
 50
240
 51
312.45973905995652
  0
LINE
  8
0
 62
50
  6
CONTINUOUS
 10
-1.1085972850766079
 20
-14.970986932075418
 11
-1.1085972850766079
 21
-14.309954751239484
  0
LINE
  8
0
 62
50
  6
CONTINUOUS
 10
0.45725648920040224
 20
-14.899885093356239
 11
0.45725648920040224
 21
-14.309954751239484
  0
LINE
  8
0
 62
50
  6
CONTINUOUS
 10
-0.4572564892004537
 20
-14.899885093356239
 11
-0.4572564892004537
 21
-14.309954751239484
  0
LINE
  8
0
 62
50
  6
CONTINUOUS
 10
0.83144796380741726
 20
-15.045248868892322
 11
-0.83144796380745589
 21
-15.045248868892322
  0
LINE
  8
0
 62
5
  6
CONTINUOUS
 10
0.56561085973293979
 20
-14.25339366526619
 11
0.56561085977229297
 21
-12.09841628968362
  0
LINE
  8
0
 62
5
  6
CONTINUOUS
 10
0.56561085977229297
 20
-12.09841628968362
 11
0.4581447964230268
 21
-11.990950226334379
  0
LINE
  8
0
 62
5
  6
CONTINUOUS
 10
0.4581447964230268
 20
-11.990950226334379
 11
-0.45814479634435912
 21
-11.990950226334379
  0
LINE
  8
0
 62
5
  6
CONTINUOUS
 10
-0.45814479634435912
 20
-11.990950226334379
 11
-0.56561085969361236
 21
-12.09841628968362
  0
LINE
  8
0
 62
5
  6
CONTINUOUS
 10
-0.56561085969361236
 20
-12.09841628968362
 11
-0.56561085973296554
 21
-14.25339366526619
  0
LINE
  8
0
 62
5
  6
CONTINUOUS
 10
0.56561085977229297
 20
-12.09841628968362
 11
-0.56561085969361236
 21
-12.09841628968362
  0
LINE
  8
0
 62
50
  6
CONTINUOUS
 10
-1.1085972850766079
 20
-14.309954751239484
 11
1.1085972850765693
 21
-14.309954751239484
  0
LINE
  8
0
 62
50
  6
CONTINUOUS
 10
0.96153846154600664
 20
-14.309954751239484
 11
0.96153846154600664
 21
-14.25339366526619
  0
LINE
  8
0
 62
50
  6
CONTINUOUS
 10
-0.9615384615460324
 20
-14.25339366526619
 11
-0.9615384615460324
 21
-14.309954751239484
  0
LINE
  8
0
 62
5
  6
CONTINUOUS
 10
0.4581447964230268
 20
-11.990950226334379
 11
0.45814479638367367
 21
-14.25339366526619
  0
LINE
  8
0
 62
5
  6
CONTINUOUS
 10
-0.45814479634435912
 20
-11.990950226334379
 11
-0.45814479638371225
 21
-14.25339366526619
  0
ENDBLK
  0
BLOCK
  8
0
 62
5
  6
DASHDOT
  2
TELL_10
 70
0
 10
-3.9353136134698465e-011
 20
-9.5022624433099843
  0
LINE
  8
0
 62
50
  6
CONTINUOUS
 10
1.1085972850765693
 20
-9.4457013575360911
 11
1.1085972850765693
 21
-8.7846691767001595
  0
ARC
  8
0
 62
50
  6
CONTINUOUS
 10
0.83144796380741726
 20
-9.2647058824215573
 40
0.55429864253829364
 50
60
 51
132.45973905995652
  0
ARC
  8
0
 62
50
  6
CONTINUOUS
 10
-1.2860502004808784e-014
 20
-9.5022624435093874
 40
0.79185520362613371
 50
54.728638055913166
 51
125.27136194408683
  0
ARC
  8
0
 62
50
  6
CONTINUOUS
 10
-0.83144796380746877
 20
-9.2647058824215573
 40
0.55429864253829364
 50
47.540260940043481
 51
120
  0
LINE
  8
0
 62
50
  6
CONTINUOUS
 10
-1.1085972850766079
 20
-8.7846691767001595
 11
-1.1085972850766079
 21
-9.4457013575360911
  0
LINE
  8
0
 62
50
  6
CONTINUOUS
 10
0.45725648920040224
 20
-8.8557710154193376
 11
0.45725648920040224
 21
-9.4457013575360911
  0
LINE
  8
0
 62
50
  6
CONTINUOUS
 10
-0.4572564892004537
 20
-8.8557710154193376
 11
-0.4572564892004537
 21
-9.4457013575360911
  0
LINE
  8
0
 62
50
  6
CONTINUOUS
 10
0.83144796380741726
 20
-8.7104072398832528
 11
-0.83144796380745589
 21
-8.7104072398832528
  0
LINE
  8
0
 62
5
  6
CONTINUOUS
 10
0.56561085973293979
 20
-9.5022624435093874
 11
0.56561085977229297
 21
-11.657239819091958
  0
LINE
  8
0
 62
5
  6
CONTINUOUS
 10
0.56561085977229297
 20
-11.657239819091958
 11
0.4581447964230268
 21
-11.764705882441197
  0
LINE
  8
0
 62
5
  6
CONTINUOUS
 10
0.4581447964230268
 20
-11.764705882441197
 11
-0.45814479634435912
 21
-11.764705882441197
  0
LINE
  8
0
 62
5
  6
CONTINUOUS
 10
-0.45814479634435912
 20
-11.764705882441197
 11
-0.56561085969361236
 21
-11.657239819091958
  0
LINE
  8
0
 62
5
  6
CONTINUOUS
 10
-0.56561085969361236
 20
-11.657239819091958
 11
-0.56561085973296554
 21
-9.5022624435093874
  0
LINE
  8
0
 62
5
  6
CONTINUOUS
 10
0.56561085977229297
 20
-11.657239819091958
 11
-0.56561085969361236
 21
-11.657239819091958
  0
LINE
  8
0
 62
50
  6
CONTINUOUS
 10
-1.1085972850766079
 20
-9.4457013575360911
 11
1.1085972850765693
 21
-9.4457013575360911
  0
LINE
  8
0
 62
50
  6
CONTINUOUS
 10
0.96153846154600664
 20
-9.4457013575360911
 11
0.96153846154600664
 21
-9.5022624435093874
  0
LINE
  8
0
 62
50
  6
CONTINUOUS
 10
-0.9615384615460324
 20
-9.5022624435093874
 11
-0.9615384615460324
 21
-9.4457013575360911
  0
LINE
  8
0
 62
5
  6
CONTINUOUS
 10
0.4581447964230268
 20
-11.764705882441197
 11
0.45814479638367367
 21
-9.5022624435093874
  0
LINE
  8
0
 62
5
  6
CONTINUOUS
 10
-0.45814479634435912
 20
-11.764705882441197
 11
-0.45814479638371225
 21
-9.5022624435093874
  0
ENDBLK
  0
BLOCK
  8
0
 62
50
  6
CONTINUOUS
  2
TELL_8
 70
0
 10
4.4561639446617239e-011
 20
-11.87782805461825
  0
LINE
  8
0
 62
50
  6
CONTINUOUS
 10
-1.97963800906536
 20
-13.235294117746875
 11
-1.9796380090660159
 21
-13.574660633590865
  0
LINE
  8
0
 62
50
  6
CONTINUOUS
 10
-1.6402714932262443
 20
-13.914027149430636
 11
1.6402714932248812
 21
-13.914027149430636
  0
LINE
  8
0
 62
50
  6
CONTINUOUS
 10
1.9796380090646528
 20
-13.574660633590865
 11
1.9796380090653216
 21
-13.235294117746875
  0
LINE
  8
0
 62
50
  6
CONTINUOUS
 10
1.9796380090653216
 20
-13.235294117746875
 11
2.3190045249050932
 21
-13.235294117746875
  0
LINE
  8
0
 62
50
  6
CONTINUOUS
 10
2.3190045249050932
 20
-13.235294117746875
 11
2.3190045249044244
 21
-13.574660633590865
  0
LINE
  8
0
 62
50
  6
CONTINUOUS
 10
1.6402714932248812
 20
-14.253393665270407
 11
-1.6402714932262443
 21
-14.25339366526619
  0
LINE
  8
0
 62
50
  6
CONTINUOUS
 10
-2.3190045249057878
 20
-13.574660633590865
 11
-2.3190045249051319
 21
-13.235294117746875
  0
LINE
  8
0
 62
50
  6
CONTINUOUS
 10
-2.3190045249051319
 20
-13.235294117746875
 11
-1.97963800906536
 21
-13.235294117746875
  0
LINE
  8
0
 62
50
  6
CONTINUOUS
 10
1.4140271493323688
 20
-12.782805429960513
 11
1.4140271493323688
 21
-13.687782805533237
  0
LINE
  8
0
 62
50
  6
CONTINUOUS
 10
1.4140271493323688
 20
-13.687782805533237
 11
-1.4140271493323946
 21
-13.687782805533237
  0
LINE
  8
0
 62
50
  6
CONTINUOUS
 10
-1.4140271493323946
 20
-13.687782805533237
 11
-1.4140271493323946
 21
-12.782805429960513
  0
LINE
  8
0
 62
50
  6
CONTINUOUS
 10
-1.4140271493323946
 20
-12.782805429960513
 11
1.4140271493323688
 21
-12.782805429960513
  0
INSERT
  8
0
 62
5
  6
DASHDOT
  2
TELL_9
 10
-3.9353136134698465e-011
 20
-14.253393665496651
 41
1.0
 42
1.0
 50
0.0
  0
LINE
  8
0
 62
5
  6
DASHDOT
 10
3.934027563271007e-011
 20
-17.873303167360579
 11
3.934027563271007e-011
 21
-5.8823529410219813
  0
LINE
  8
0
 62
50
  6
CONTINUOUS
 10
2.4321266968910367
 20
-6.2217194568617531
 11
2.4321266968910367
 21
-17.533936651520808
  0
LINE
  8
0
 62
50
  6
CONTINUOUS
 10
-2.432126696812356
 20
-17.533936651520808
 11
-2.432126696812356
 21
-6.2217194568617531
  0
LINE
  8
0
 62
50
  6
CONTINUOUS
 10
-2.432126696812356
 20
-17.533936651520808
 11
2.4321266968910367
 21
-17.533936651520808
  0
LINE
  8
0
 62
50
  6
CONTINUOUS
 10
-2.432126696812356
 20
-6.2217194568617531
 11
2.4321266968910367
 21
-6.2217194568617531
  0
LINE
  8
0
 62
5
  6
CONTINUOUS
 10
1.7533936651721533
 20
-6.2217194570582608
 11
1.7533936651714717
 21
-9.5117556807195065
  0
LINE
  8
0
 62
5
  6
CONTINUOUS
 10
1.7533936651721533
 20
-9.8641303583741955
 11
1.7533936651328001
 21
-13.888194412066182
  0
LINE
  8
0
 62
5
  6
CONTINUOUS
 10
-1.7533936651721533
 20
-17.533936651717315
 11
-1.7533936652115065
 21
-14.231054440349418
  0
LINE
  8
0
 62
5
  6
CONTINUOUS
 10
-1.7533936652115065
 20
-13.891525750301481
 11
-1.7533936652115065
 21
-9.8641303583820665
  0
LINE
  8
0
 62
5
  6
CONTINUOUS
 10
-1.7533936652067739
 20
-9.5117556807254751
 11
-1.7533936651721533
 21
-6.2217194570582608
  0
LINE
  8
0
 62
5
  6
CONTINUOUS
 10
1.7533936651328001
 20
-14.231054440349418
 11
1.7533936651721533
 21
-17.533936651717315
  0
CIRCLE
  8
0
 62
50
  6
CONTINUOUS
 10
3.934027563271007e-011
 20
-7.6923076921674811
 40
0.5656108597329752
  0
CIRCLE
  8
0
 62
50
  6
CONTINUOUS
 10
3.934027563271007e-011
 20
-16.063348416215128
 40
0.56561085973296199
  0
LINE
  8
0
 62
5
  6
DASHDOT
 10
-0.67873303164021581
 20
-16.063348416215128
 11
0.67873303171889632
 21
-16.063348416215128
  0
LINE
  8
0
 62
5
  6
DASHDOT
 10
-0.67873303164022869
 20
-7.6923076921674811
 11
0.6787330317189092
 21
-7.6923076921674811
  0
LINE
  8
0
 62
50
  6
CONTINUOUS
 10
-1.97963800906536
 20
-10.520361991028702
 11
-1.9796380090660159
 21
-10.180995475193148
  0
LINE
  8
0
 62
50
  6
CONTINUOUS
 10
-1.6402714932262443
 20
-9.8416289593533772
 11
1.6402714932248812
 21
-9.8416289593533772
  0
LINE
  8
0
 62
50
  6
CONTINUOUS
 10
1.9796380090646528
 20
-10.180995475193148
 11
1.9796380090653216
 21
-10.520361991028702
  0
LINE
  8
0
 62
50
  6
CONTINUOUS
 10
1.9796380090653216
 20
-10.520361991028702
 11
2.3190045249050932
 21
-10.520361991028702
  0
LINE
  8
0
 62
50
  6
CONTINUOUS
 10
2.3190045249050932
 20
-10.520361991028702
 11
2.3190045249044244
 21
-10.180995475193148
  0
LINE
  8
0
 62
50
  6
CONTINUOUS
 10
1.6402714932248812
 20
-9.5022624435136045
 11
-1.6402714932262443
 21
-9.5022624435093874
  0
LINE
  8
0
 62
50
  6
CONTINUOUS
 10
-2.3190045249057878
 20
-10.180995475193148
 11
-2.3190045249051319
 21
-10.520361991028702
  0
LINE
  8
0
 62
50
  6
CONTINUOUS
 10
-2.3190045249051319
 20
-10.520361991028702
 11
-1.97963800906536
 21
-10.520361991028702
  0
LINE
  8
0
 62
50
  6
CONTINUOUS
 10
1.4140271493323688
 20
-10.972850678815064
 11
1.4140271493323688
 21
-10.06787330324234
  0
LINE
  8
0
 62
50
  6
CONTINUOUS
 10
1.4140271493323688
 20
-10.06787330324234
 11
-1.4140271493323946
 21
-10.06787330324234
  0
LINE
  8
0
 62
50
  6
CONTINUOUS
 10
-1.4140271493323946
 20
-10.06787330324234
 11
-1.4140271493323946
 21
-10.972850678815064
  0
LINE
  8
0
 62
50
  6
CONTINUOUS
 10
-1.4140271493323946
 20
-10.972850678815064
 11
1.4140271493323688
 21
-10.972850678815064
  0
INSERT
  8
0
 62
5
  6
DASHDOT
  2
TELL_10
 10
-3.9353136134698465e-011
 20
-9.5022624433099843
 41
1.0
 42
1.0
 50
0.0
  0
ARC
  8
0
 62
50
  6
CONTINUOUS
 10
-1.6402714932255884
 20
-10.180995475188929
 40
0.33936651583977162
 50
90
 51
180.00000000071216
  0
ARC
  8
0
 62
50
  6
CONTINUOUS
 10
1.64027149322555
 20
-10.180995475193148
 40
0.33936651583977162
 50
0
 51
90
  0
ARC
  8
0
 62
50
  6
CONTINUOUS
 10
-1.6402714932255884
 20
-13.574660633586646
 40
0.33936651583977162
 50
180.00000000071216
 51
270
  0
ARC
  8
0
 62
50
  6
CONTINUOUS
 10
1.64027149322555
 20
-13.574660633590865
 40
0.33936651583977162
 50
270
 51
0
  0
ARC
  8
0
 62
50
  6
CONTINUOUS
 10
-1.6402714932255884
 20
-13.574660633586646
 40
0.67873303167954324
 50
180.0000000003561
 51
270
  0
ARC
  8
0
 62
50
  6
CONTINUOUS
 10
1.6402714932255371
 20
-13.574660633586646
 40
0.67873303167954324
 50
270
 51
359.99999999964393
  0
ARC
  8
0
 62
50
  6
CONTINUOUS
 10
-1.6402714932255884
 20
-10.180995475188929
 40
0.67873303167954324
 50
90
 51
180.0000000003561
  0
ARC
  8
0
 62
50
  6
CONTINUOUS
 10
1.6402714932255371
 20
-10.180995475188929
 40
0.67873303167954324
 50
359.99999999964393
 51
90
  0
ENDBLK
  0
ENDSEC
  0
SECTION
  2
ENTITIES
  0
INSERT
  8
0
 62
50
  6
CONTINUOUS
  2
TELL_1
 10
4.4561639446662437e-011
 20
-1.9229022597590092e-010
 41
1.0
 42
1.0
 50
0.0
  0
INSERT
  8
0
 62
50
  6
CONTINUOUS
  2
3_51_CKEDB
 10
12.613122172044845
 20
-1.9229022597549338e-010
 41
1.0
 42
1.0
 50
0.0
  0
INSERT
  8
0
 62
50
  6
CONTINUOUS
  2
TELL_8
 10
4.4561639446617239e-011
 20
-11.87782805461825
 41
1.0
 42
1.0
 50
0.0
  0
ENDSEC
  0
EOF
