  0
SECTION
  2
HEADER
  9
$ACADVER
  1
AC1009
  9
$EXTMIN
 10
-2.4321266968379804
 20
-17.873303167416598
  9
$EXTMAX
 10
18.26923076923077
 20
7.1266968325834039
  9
$TEXTSTYLE
  7
STANDARD
  9
$DIMLFAC
 40
1
  9
$REGENMODE
 70
1
  9
$DRAGMODE
 70
2
  9
$DIMASO
 70
1
  9
$LTSCALE
 40
1.0000000000
  0
ENDSEC
  0
SECTION
  2
TABLES
  0
TABLE
  2
LTYPE
 70
2
  0
LTYPE
  2
CONTINUOUS
 70
64
  3
CONTINUOUS
 72
65
 73
0
 40
0.0000000000
  0
LTYPE
  2
DASHDOT
 70
64
  3
DASHDOT
 72
65
 73
4
 40
1.0000000000
 49
0.5000000000
 49
-0.2500000000
 49
0.0000000000
 49
-0.2500000000
  0
ENDTAB
  0
TABLE
  2
LAYER
 70
2
  0
LAYER
  2
0
 70
0
 62
2
  6
CONTINUOUS
  0
LAYER
  2
249
 70
0
 62
2
  6
CONTINUOUS
  0
ENDTAB
  0
TABLE
  2
STYLE
 70
0
  0
STYLE
  2
Standard
 70
0
 40
0
 41
1
 50
0
 71
0
 42
2.5
  3
txt
  4

  0
ENDTAB
  0
ENDSEC
  0
SECTION
  2
BLOCKS
  0
BLOCK
  8
249
 62
5
  6
DASHDOT
  2
TELL_2
 70
0
 10
0
 20
5.4298642533978834
  0
LINE
  8
249
 62
50
  6
CONTINUOUS
 10
0
 20
6.5401532326086862
 11
-0.96153846153846156
 21
5.9850087430032852
  0
LINE
  8
249
 62
50
  6
CONTINUOUS
 10
-0.96153846153846156
 20
5.9850087430032852
 11
-0.96153846153846156
 21
4.8747197637924815
  0
LINE
  8
249
 62
50
  6
CONTINUOUS
 10
-0.96153846153846156
 20
4.8747197637924815
 11
0
 21
4.3195752741870805
  0
LINE
  8
249
 62
50
  6
CONTINUOUS
 10
0
 20
4.3195752741870805
 11
0.96153846153846156
 21
4.8747197637924815
  0
LINE
  8
249
 62
50
  6
CONTINUOUS
 10
0.96153846153846156
 20
4.8747197637924815
 11
0.96153846153846156
 21
5.9850087430032852
  0
LINE
  8
249
 62
50
  6
CONTINUOUS
 10
0.96153846153846156
 20
5.9850087430032852
 11
0
 21
6.5401532326086862
  0
CIRCLE
  8
249
 62
50
  6
CONTINUOUS
 10
0
 20
5.4298642533978834
 40
0.96153846153846179
  0
LINE
  8
249
 62
5
  6
DASHDOT
 10
0
 20
4.0933309302956777
 11
0
 21
6.766397576500089
  0
LINE
  8
249
 62
5
  6
DASHDOT
 10
-1.3365333231022187
 20
5.4298642533978834
 11
1.3365333231022187
 21
5.4298642533978834
  0
ENDBLK
  0
BLOCK
  8
0
 62
140
  6
CONTINUOUS
  2
TELL_3
 70
0
 10
-1.1124334234072156e-011
 20
0.58903922864195168
  0
LINE
  8
0
 62
50
  6
CONTINUOUS
 10
-2.0459034431769449
 20
0.27310108171412562
 11
-1.4140271493212671
 21
0.90497737556982916
  0
LINE
  8
0
 62
50
  6
CONTINUOUS
 10
-1.4140271493212671
 20
0.90497737556982916
 11
1.4140271493212671
 21
0.90497737556982916
  0
LINE
  8
0
 62
50
  6
CONTINUOUS
 10
1.4140271493212671
 20
0.90497737556982916
 11
2.045903443156265
 21
0.2731010817348053
  0
ARC
  8
0
 62
50
  6
CONTINUOUS
 10
1.753393665158371
 20
-0.33936651583288585
 40
0.67873303167420707
 50
64.471220636279796
 51
90
  0
LINE
  8
0
 62
50
  6
CONTINUOUS
 10
1.753393665158371
 20
0.33936651584132232
 11
-1.753393665158371
 21
0.33936651584132232
  0
ARC
  8
0
 62
50
  6
CONTINUOUS
 10
-1.753393665158371
 20
-0.33936651583288585
 40
0.6787330316742074
 50
90
 51
115.52877936626274
  0
ENDBLK
  0
BLOCK
  8
0
 62
50
  6
CONTINUOUS
  2
TELL_1
 70
0
 10
-3.934027563240084e-011
 20
-1.9229022597438946e-010
  0
LINE
  8
0
 62
50
  6
CONTINUOUS
 10
2.319004524886878
 20
7.0135746606377021
 11
2.319004524886878
 21
3.8461538461580642
  0
LINE
  8
0
 62
50
  6
CONTINUOUS
 10
-2.3190045248868909
 20
3.8461538461580642
 11
-2.3190045248868909
 21
7.0135746606377021
  0
LINE
  8
0
 62
50
  6
CONTINUOUS
 10
-1.4140271493212671
 20
7.1266968325834039
 11
1.4140271493212671
 21
7.1266968325834039
  0
LINE
  8
0
 62
50
  6
CONTINUOUS
 10
1.4140271493212671
 20
7.1266968325834039
 11
1.4140271493212671
 21
7.0135746606377021
  0
LINE
  8
0
 62
50
  6
CONTINUOUS
 10
-1.4140271493212671
 20
0.90497737556982916
 11
-1.4140271493212671
 21
3.8461538461580642
  0
LINE
  8
0
 62
50
  6
CONTINUOUS
 10
1.4140271493212671
 20
3.8461538461580642
 11
1.4140271493212671
 21
0.90497737556982916
  0
LINE
  8
0
 62
50
  6
CONTINUOUS
 10
-1.4140271493212671
 20
7.0135746606377021
 11
-1.4140271493212671
 21
7.1266968325834039
  0
LINE
  8
0
 62
50
  6
CONTINUOUS
 10
-2.3190045248868909
 20
3.8461538461580642
 11
2.319004524886878
 21
3.8461538461580642
  0
LINE
  8
0
 62
5
  6
CONTINUOUS
 10
1.5837104072004788
 20
6.9004524886920011
 11
1.5837104072004788
 21
3.9592760181037656
  0
LINE
  8
0
 62
5
  6
CONTINUOUS
 10
-1.5837104072791592
 20
3.9592760181037656
 11
-1.5837104072791592
 21
6.9004524886920011
  0
LINE
  8
0
 62
50
  6
CONTINUOUS
 10
-2.3190045248868909
 20
7.0135746606377021
 11
2.319004524886878
 21
7.0135746606377021
  0
INSERT
  8
249
 62
5
  6
DASHDOT
  2
TELL_2
 10
0
 20
5.4298642533978834
 41
1.0
 42
1.0
 50
0.0
  0
LINE
  8
0
 62
5
  6
DASHDOT
 10
0
 20
-0.56561085972428859
 11
0
 21
1.2443438914069331
  0
INSERT
  8
0
 62
140
  6
CONTINUOUS
  2
TELL_3
 10
-1.1124334234072156e-011
 20
0.58903922864195168
 41
1.0
 42
1.0
 50
0.0
  0
LINE
  8
0
 62
50
  6
CONTINUOUS
 10
-2.0459034431769449
 20
0.27310108171412562
 11
-1.4140271493212671
 21
0.90497737556982916
  0
LINE
  8
0
 62
50
  6
CONTINUOUS
 10
1.4140271493212671
 20
0.90497737556982916
 11
2.045903443156265
 21
0.2731010817348053
  0
LINE
  8
0
 62
50
  6
CONTINUOUS
 10
-1.4140271493212671
 20
0.90497737556982916
 11
1.4140271493212671
 21
0.90497737556982916
  0
LINE
  8
0
 62
50
  6
CONTINUOUS
 10
-2.0927601809954752
 20
-1.6968325791813021
 11
-2.0927601810008767
 21
-0.33936651583710409
  0
LINE
  8
0
 62
50
  6
CONTINUOUS
 10
-2.0927601809954752
 20
-1.6968325791813021
 11
-2.432126696832579
 21
-1.6968325791813021
  0
LINE
  8
0
 62
50
  6
CONTINUOUS
 10
2.432126696832579
 20
-1.6968325791813021
 11
2.0927601809954752
 21
-1.6968325791813021
  0
LINE
  8
0
 62
50
  6
CONTINUOUS
 10
-1.7533936651637725
 20
0.33936651583710409
 11
1.7533936651529696
 21
0.33936651583710409
  0
LINE
  8
0
 62
50
  6
CONTINUOUS
 10
2.432126696832579
 20
-1.6968325791813021
 11
2.432126696827178
 21
-0.33936651583710409
  0
LINE
  8
0
 62
50
  6
CONTINUOUS
 10
2.432126696832579
 20
-0.56561085972428859
 11
2.0927601809954752
 21
-0.56561085972428859
  0
LINE
  8
0
 62
50
  6
CONTINUOUS
 10
2.0927601809954752
 20
-1.6968325791813021
 11
2.0927601809900738
 21
-0.33936651583710409
  0
LINE
  8
0
 62
50
  6
CONTINUOUS
 10
1.7533936651529696
 20
0
 11
-1.7533936651637725
 21
4.2182446575441245e-012
  0
LINE
  8
0
 62
50
  6
CONTINUOUS
 10
-2.0927601809954752
 20
-0.56561085972428859
 11
-2.432126696832579
 21
-0.56561085972428859
  0
LINE
  8
0
 62
50
  6
CONTINUOUS
 10
-2.432126696832579
 20
-1.6968325791813021
 11
-2.4321266968379804
 21
-0.33936651583710409
  0
ARC
  8
0
 62
50
  6
CONTINUOUS
 10
-1.7533936651583646
 20
-0.33936651583288585
 40
0.33936651583710409
 50
90
 51
180.00000000071216
  0
ARC
  8
0
 62
50
  6
CONTINUOUS
 10
1.7533936651583646
 20
-0.33936651583288585
 40
0.33936651583710409
 50
359.99999999928781
 51
90
  0
ARC
  8
0
 62
50
  6
CONTINUOUS
 10
-1.753393665158371
 20
-0.33936651583288585
 40
0.67873303167420818
 50
90
 51
180.0000000003561
  0
ARC
  8
0
 62
50
  6
CONTINUOUS
 10
1.753393665158371
 20
-0.33936651583710409
 40
0.67873303167420818
 50
0
 51
90
  0
ENDBLK
  0
BLOCK
  8
0
 62
5
  6
DASHDOT
  2
TELL_4
 70
0
 10
13.631221719457013
 20
5.429864253201357
  0
LINE
  8
0
 62
50
  6
CONTINUOUS
 10
13.687782805390462
 20
4.3212669683299891
 11
14.348814986221198
 21
4.3212669683299891
  0
ARC
  8
0
 62
50
  6
CONTINUOUS
 10
13.868778280503573
 20
4.5984162895969884
 40
0.55429864253393668
 50
330
 51
42.459739059956519
  0
ARC
  8
0
 62
50
  6
CONTINUOUS
 10
13.631221719417608
 20
5.4298642533978834
 40
0.79185520361990946
 50
324.72863805591317
 51
35.271361944086834
  0
ARC
  8
0
 62
50
  6
CONTINUOUS
 10
13.868778280503621
 20
6.2613122171987783
 40
0.55429864253393668
 50
317.54026094004348
 51
30
  0
LINE
  8
0
 62
50
  6
CONTINUOUS
 10
14.348814986221194
 20
6.5384615384657785
 11
13.687782805390459
 21
6.5384615384657785
  0
LINE
  8
0
 62
50
  6
CONTINUOUS
 10
14.277713147502578
 20
4.9726077642010367
 11
13.68778280539046
 21
4.9726077642010367
  0
LINE
  8
0
 62
50
  6
CONTINUOUS
 10
14.277713147502578
 20
5.8871207425947301
 11
13.68778280539046
 21
5.8871207425947301
  0
LINE
  8
0
 62
50
  6
CONTINUOUS
 10
14.42307692303752
 20
4.5984162895969884
 11
14.423076923037517
 21
6.2613122171987783
  0
LINE
  8
0
 62
5
  6
CONTINUOUS
 10
13.631221719417608
 20
4.8642533936693768
 11
11.476244343852029
 21
4.8642533936693741
  0
LINE
  8
0
 62
5
  6
CONTINUOUS
 10
11.476244343852029
 20
4.8642533936693741
 11
11.368778280503582
 21
4.9717194570177696
  0
LINE
  8
0
 62
5
  6
CONTINUOUS
 10
11.368778280503582
 20
4.9717194570177696
 11
11.368778280503582
 21
5.8880090497779918
  0
LINE
  8
0
 62
5
  6
CONTINUOUS
 10
11.368778280503582
 20
5.8880090497779918
 11
11.476244343852029
 21
5.9954751131263881
  0
LINE
  8
0
 62
5
  6
CONTINUOUS
 10
11.476244343852029
 20
5.9954751131263881
 11
13.631221719417608
 21
5.9954751131263899
  0
LINE
  8
0
 62
5
  6
CONTINUOUS
 10
11.476244343852029
 20
4.8642533936693741
 11
11.476244343852029
 21
5.9954751131263881
  0
LINE
  8
0
 62
50
  6
CONTINUOUS
 10
13.687782805390459
 20
6.5384615384657785
 11
13.687782805390462
 21
4.3212669683299891
  0
LINE
  8
0
 62
50
  6
CONTINUOUS
 10
13.687782805390462
 20
4.4683257918594217
 11
13.63122171941761
 21
4.4683257918594217
  0
LINE
  8
0
 62
50
  6
CONTINUOUS
 10
13.631221719417608
 20
6.3914027149363468
 11
13.687782805390459
 21
6.3914027149363468
  0
LINE
  8
0
 62
5
  6
CONTINUOUS
 10
11.368778280503582
 20
4.9717194570177696
 11
13.631221719417608
 21
4.9717194570177723
  0
LINE
  8
0
 62
5
  6
CONTINUOUS
 10
11.368778280503582
 20
5.8880090497779918
 11
13.631221719417608
 21
5.8880090497779944
  0
LINE
  8
0
 62
5
  6
DASHDOT
 10
11.14253393661218
 20
5.4298642533978807
 11
14.649321266928922
 21
5.4298642533978834
  0
ENDBLK
  0
BLOCK
  8
0
 62
140
  6
CONTINUOUS
  2
TELL_5
 70
0
 10
12.613122171945715
 20
0.58860910538417421
  0
LINE
  8
0
 62
50
  6
CONTINUOUS
 10
11.595022624434389
 20
0.33936651584132232
 11
12.160633484162895
 21
0.90497737556982916
  0
LINE
  8
0
 62
50
  6
CONTINUOUS
 10
12.160633484162895
 20
0.90497737556982916
 11
13.065610859728507
 21
0.90497737556982916
  0
LINE
  8
0
 62
50
  6
CONTINUOUS
 10
13.065610859728507
 20
0.90497737556982916
 11
13.631221719457013
 21
0.33936651584132232
  0
LINE
  8
0
 62
50
  6
CONTINUOUS
 10
13.631221719457027
 20
0.33936651584132232
 11
13.515839745847529
 21
0.33936651584132232
  0
LINE
  8
0
 62
50
  6
CONTINUOUS
 10
13.515839722436965
 20
0.33936651584132232
 11
13.501560278914502
 21
0.33588582598425121
  0
LINE
  8
0
 62
50
  6
CONTINUOUS
 10
13.501560278303963
 20
0.33588582678124224
 11
13.438017595772576
 21
0.32561534302276701
  0
LINE
  8
0
 62
50
  6
CONTINUOUS
 10
13.438017595322485
 20
0.32561534372294421
 11
13.359595553780908
 21
0.31700798746502862
  0
LINE
  8
0
 62
50
  6
CONTINUOUS
 10
13.359595553500625
 20
0.31700798802559216
 11
13.348885514654576
 21
0.3162392486166743
  0
LINE
  8
0
 62
50
  6
CONTINUOUS
 10
13.348885514654576
 20
0.3162392486166743
 11
13.32236750164564
 21
0.30683602898610579
  0
LINE
  8
0
 62
50
  6
CONTINUOUS
 10
13.322367561398696
 20
0.30683602898610579
 11
13.273300122792289
 21
0.29321476947278297
  0
LINE
  8
0
 62
50
  6
CONTINUOUS
 10
13.273300123090936
 20
0.29321476816605307
 11
13.172867455122075
 21
0.27761514705098184
  0
LINE
  8
0
 62
50
  6
CONTINUOUS
 10
13.172867455122075
 20
0.27761514705098184
 11
13.065610859728507
 21
0.27224083519857073
  0
LINE
  8
0
 62
50
  6
CONTINUOUS
 10
13.065610859728507
 20
0.27224083519857073
 11
12.160633484162895
 21
0.27224083519857073
  0
LINE
  8
0
 62
50
  6
CONTINUOUS
 10
12.160633484162895
 20
0.27224083519857073
 11
12.053376888769328
 21
0.27761514705098184
  0
LINE
  8
0
 62
50
  6
CONTINUOUS
 10
12.053376888769328
 20
0.27761514705098184
 11
11.952944220800468
 21
0.29321476816605307
  0
LINE
  8
0
 62
50
  6
CONTINUOUS
 10
11.952944221099115
 20
0.29321476947278297
 11
11.903876782492707
 21
0.30683602898610579
  0
LINE
  8
0
 62
50
  6
CONTINUOUS
 10
11.903876842245712
 20
0.30683602898610579
 11
11.87735882923675
 21
0.3162392486166743
  0
LINE
  8
0
 62
50
  6
CONTINUOUS
 10
11.87735882923675
 20
0.3162392486166743
 11
11.866648786092437
 21
0.317007979428861
  0
LINE
  8
0
 62
50
  6
CONTINUOUS
 10
11.866648789810178
 20
0.31700798686439174
 11
11.78822674392908
 21
0.32561533650465307
  0
LINE
  8
0
 62
50
  6
CONTINUOUS
 10
11.788226746368229
 20
0.3256153402992728
 11
11.724684061293319
 21
0.33588582117565807
  0
LINE
  8
0
 62
50
  6
CONTINUOUS
 10
11.724684064976902
 20
0.33588582598425121
 11
11.710404621454463
 21
0.33936651584132232
  0
LINE
  8
0
 62
50
  6
CONTINUOUS
 10
11.710404598043874
 20
0.33936651584132232
 11
11.595022624434401
 21
0.33936651584132232
  0
ENDBLK
  0
BLOCK
  8
0
 62
50
  6
CONTINUOUS
  2
3_51_CKEB
 70
0
 10
12.613122171945701
 20
-1.9229022597398192e-010
  0
LINE
  8
0
 62
50
  6
CONTINUOUS
 10
13.065610859689128
 20
7.1266968325834039
 11
12.160633484123517
 21
7.1266968325834039
  0
LINE
  8
0
 62
50
  6
CONTINUOUS
 10
12.160633484123517
 20
7.1266968325834039
 11
12.160633484123517
 21
0.90497737556982916
  0
LINE
  8
0
 62
50
  6
CONTINUOUS
 10
13.065610859689128
 20
0.90497737556982916
 11
13.065610859689128
 21
3.8461538461580642
  0
LINE
  8
0
 62
50
  6
CONTINUOUS
 10
13.065610859689128
 20
7.0135746606377021
 11
13.065610859689128
 21
7.1266968325834039
  0
LINE
  8
0
 62
50
  6
CONTINUOUS
 10
13.631221719417635
 20
3.8461538461580642
 11
13.631221719417635
 21
7.0135746606377021
  0
LINE
  8
0
 62
50
  6
CONTINUOUS
 10
13.631221719417635
 20
7.0135746606377021
 11
12.613122171906323
 21
7.0135746606377021
  0
LINE
  8
0
 62
50
  6
CONTINUOUS
 10
12.613122171906323
 20
7.0135746606377021
 11
12.613122171906323
 21
3.8461538461580642
  0
LINE
  8
0
 62
50
  6
CONTINUOUS
 10
13.631221719417635
 20
3.8461538461580642
 11
12.613122171906323
 21
3.8461538461580642
  0
INSERT
  8
0
 62
5
  6
DASHDOT
  2
TELL_4
 10
13.631221719457013
 20
5.429864253201357
 41
1.0
 42
1.0
 50
0.0
  0
INSERT
  8
0
 62
140
  6
CONTINUOUS
  2
TELL_5
 10
12.613122171945715
 20
0.58860910538417421
 41
1.0
 42
1.0
 50
0.0
  0
LINE
  8
0
 62
50
  6
CONTINUOUS
 10
11.595022624434389
 20
0.33936651584132232
 11
12.160633484162895
 21
0.90497737556982916
  0
LINE
  8
0
 62
50
  6
CONTINUOUS
 10
13.065610859728507
 20
0.90497737556982916
 11
13.631221719457013
 21
0.33936651584132232
  0
LINE
  8
0
 62
50
  6
CONTINUOUS
 10
11.724684064976902
 20
0.33588582598425121
 11
11.710404621454463
 21
0.33936651584132232
  0
LINE
  8
0
 62
50
  6
CONTINUOUS
 10
13.515839722436965
 20
0.33936651584132232
 11
13.501560278914502
 21
0.33588582598425121
  0
LINE
  8
0
 62
50
  6
CONTINUOUS
 10
11.788226746368229
 20
0.3256153402992728
 11
11.724684061293319
 21
0.33588582117565807
  0
LINE
  8
0
 62
50
  6
CONTINUOUS
 10
13.501560278303963
 20
0.33588582678124224
 11
13.438017595772576
 21
0.32561534302276701
  0
LINE
  8
0
 62
50
  6
CONTINUOUS
 10
11.866648789810178
 20
0.31700798686439174
 11
11.78822674392908
 21
0.32561533650465307
  0
LINE
  8
0
 62
50
  6
CONTINUOUS
 10
13.438017595322485
 20
0.32561534372294421
 11
13.359595553780908
 21
0.31700798746502862
  0
LINE
  8
0
 62
50
  6
CONTINUOUS
 10
11.87735882923675
 20
0.3162392486166743
 11
11.866648786092437
 21
0.317007979428861
  0
LINE
  8
0
 62
50
  6
CONTINUOUS
 10
11.903876842245712
 20
0.30683602898610579
 11
11.87735882923675
 21
0.3162392486166743
  0
LINE
  8
0
 62
50
  6
CONTINUOUS
 10
13.359595553500625
 20
0.31700798802559216
 11
13.348885514654576
 21
0.3162392486166743
  0
LINE
  8
0
 62
50
  6
CONTINUOUS
 10
13.348885514654576
 20
0.3162392486166743
 11
13.32236750164564
 21
0.30683602898610579
  0
LINE
  8
0
 62
50
  6
CONTINUOUS
 10
12.160633484162895
 20
0.90497737556982916
 11
13.065610859728507
 21
0.90497737556982916
  0
LINE
  8
0
 62
50
  6
CONTINUOUS
 10
6.9570135746606336
 20
0.33936651584132232
 11
11.710404598043874
 21
0.33936651584132232
  0
LINE
  8
0
 62
50
  6
CONTINUOUS
 10
13.515839745847529
 20
0.33936651584132232
 11
18.26923076923077
 21
0.33936651584132232
  0
LINE
  8
0
 62
50
  6
CONTINUOUS
 10
13.322367561398696
 20
0.30683602898610579
 11
13.273300122792289
 21
0.29321476947278297
  0
LINE
  8
0
 62
50
  6
CONTINUOUS
 10
11.952944221099115
 20
0.29321476947278297
 11
11.903876782492707
 21
0.30683602898610579
  0
LINE
  8
0
 62
50
  6
CONTINUOUS
 10
12.160633484162895
 20
0.27224083519857073
 11
13.065610859728507
 21
0.27224083519857073
  0
LINE
  8
0
 62
50
  6
CONTINUOUS
 10
13.065610859728507
 20
0.27224083519857073
 11
13.172867455122075
 21
0.27761514705098184
  0
LINE
  8
0
 62
50
  6
CONTINUOUS
 10
11.952944220800468
 20
0.29321476816605307
 11
12.053376888769328
 21
0.27761514705098184
  0
LINE
  8
0
 62
50
  6
CONTINUOUS
 10
12.053376888769328
 20
0.27761514705098184
 11
12.160633484162895
 21
0.27224083519857073
  0
LINE
  8
0
 62
50
  6
CONTINUOUS
 10
13.172867455122075
 20
0.27761514705098184
 11
13.273300123090936
 21
0.29321476816605307
  0
LINE
  8
0
 62
50
  6
CONTINUOUS
 10
18.26923076923077
 20
-0.56561085972428859
 11
18.26923076923077
 21
0.33936651584132232
  0
LINE
  8
0
 62
50
  6
CONTINUOUS
 10
6.9570135746606336
 20
-0.56561085972428859
 11
6.9570135746606336
 21
0.33936651584132232
  0
LINE
  8
0
 62
5
  6
CONTINUOUS
 10
6.9570135746212802
 20
-0.33936651622590275
 11
18.269230769191417
 21
-0.33936651622590275
  0
LINE
  8
0
 62
50
  6
CONTINUOUS
 10
18.26923076923077
 20
-0.56561085972428859
 11
17.616119604989109
 21
-1.6968325791813021
  0
LINE
  8
0
 62
50
  6
CONTINUOUS
 10
17.616119604989109
 20
-1.6968325791813021
 11
7.6101247389022948
 21
-1.6968325791813021
  0
LINE
  8
0
 62
50
  6
CONTINUOUS
 10
7.6101247389022948
 20
-1.6968325791813021
 11
6.9570135746606336
 21
-0.56561085972428859
  0
LINE
  8
0
 62
5
  6
DASHDOT
 10
8.4276018099547514
 20
-0.56561085972428859
 11
8.4276018099547514
 21
0.64984228296513491
  0
LINE
  8
0
 62
5
  6
DASHDOT
 10
16.798642533936665
 20
-0.56561085972428859
 11
16.798642533936665
 21
0.64984228296513491
  0
LINE
  8
0
 62
5
  6
CONTINUOUS
 10
12.952488687743427
 20
3.9592760181037656
 11
12.952488687743427
 21
6.9004524886920011
  0
ENDBLK
  0
BLOCK
  8
249
 62
5
  6
DASHDOT
  2
TELL_7
 70
0
 10
-3.9340275632352941e-011
 20
-12.895927602036199
  0
LINE
  8
249
 62
50
  6
CONTINUOUS
 10
1.1085972850678683
 20
-12.952488687778583
 11
1.1085972850678694
 21
-13.613520868609324
  0
ARC
  8
249
 62
50
  6
CONTINUOUS
 10
0.83144796380090158
 20
-13.133484162891699
 40
0.55429864253393668
 50
227.54026094004348
 51
300
  0
ARC
  8
249
 62
50
  6
CONTINUOUS
 10
-6.4302510027047442e-015
 20
-12.895927601805736
 40
0.79185520361990946
 50
234.72863805591317
 51
305.27136194408683
  0
ARC
  8
249
 62
50
  6
CONTINUOUS
 10
-0.83144796380091357
 20
-13.133484162891699
 40
0.55429864253393668
 50
240
 51
312.45973905995652
  0
LINE
  8
249
 62
50
  6
CONTINUOUS
 10
-1.1085972850678798
 20
-13.613520868609324
 11
-1.1085972850678811
 21
-12.95248868777859
  0
LINE
  8
249
 62
50
  6
CONTINUOUS
 10
0.45725648919682838
 20
-13.542419029890706
 11
0.45725648919682732
 21
-12.952488687778587
  0
LINE
  8
249
 62
50
  6
CONTINUOUS
 10
-0.4572564891968392
 20
-13.542419029890706
 11
-0.4572564891968402
 21
-12.952488687778587
  0
LINE
  8
249
 62
50
  6
CONTINUOUS
 10
0.83144796380090236
 20
-13.687782805425647
 11
-0.83144796380090635
 21
-13.687782805425647
  0
LINE
  8
249
 62
5
  6
CONTINUOUS
 10
0.56561085972850034
 20
-12.895927601805736
 11
0.56561085972849712
 21
-10.740950226240106
  0
LINE
  8
249
 62
5
  6
CONTINUOUS
 10
0.56561085972849712
 20
-10.740950226240106
 11
0.45814479638008193
 21
-10.63348416289171
  0
LINE
  8
249
 62
5
  6
CONTINUOUS
 10
0.45814479638008193
 20
-10.63348416289171
 11
-0.45814479638010164
 21
-10.63348416289171
  0
LINE
  8
249
 62
5
  6
CONTINUOUS
 10
-0.45814479638010164
 20
-10.63348416289171
 11
-0.56561085972851644
 21
-10.740950226240106
  0
LINE
  8
249
 62
5
  6
CONTINUOUS
 10
-0.56561085972851644
 20
-10.740950226240106
 11
-0.56561085972851322
 21
-12.895927601805736
  0
LINE
  8
249
 62
5
  6
CONTINUOUS
 10
0.56561085972849712
 20
-10.740950226240106
 11
-0.56561085972851644
 21
-10.740950226240106
  0
LINE
  8
249
 62
50
  6
CONTINUOUS
 10
-1.1085972850678811
 20
-12.95248868777859
 11
1.1085972850678683
 21
-12.952488687778583
  0
LINE
  8
249
 62
50
  6
CONTINUOUS
 10
0.96153846153845512
 20
-12.952488687778587
 11
0.96153846153845512
 21
-12.895927601805736
  0
LINE
  8
249
 62
50
  6
CONTINUOUS
 10
-0.961538461538468
 20
-12.895927601805736
 11
-0.961538461538468
 21
-12.952488687778587
  0
LINE
  8
249
 62
5
  6
CONTINUOUS
 10
0.45814479638008193
 20
-10.63348416289171
 11
0.45814479638008537
 21
-12.895927601805736
  0
LINE
  8
249
 62
5
  6
CONTINUOUS
 10
-0.45814479638010164
 20
-10.63348416289171
 11
-0.4581447963800982
 21
-12.895927601805736
  0
ENDBLK
  0
BLOCK
  8
0
 62
50
  6
CONTINUOUS
  2
TELL_6
 70
0
 10
-3.9340275632352941e-011
 20
-11.877828054524887
  0
LINE
  8
0
 62
50
  6
CONTINUOUS
 10
-1.9796380090497867
 20
-11.877828054294424
 11
-1.9796380090551753
 21
-12.217194570135746
  0
LINE
  8
0
 62
50
  6
CONTINUOUS
 10
-1.6402714932180711
 20
-12.55656108597285
 11
1.6402714932072682
 21
-12.55656108597285
  0
LINE
  8
0
 62
50
  6
CONTINUOUS
 10
1.9796380090443724
 20
-12.217194570135746
 11
1.9796380090497738
 21
-11.877828054294424
  0
LINE
  8
0
 62
50
  6
CONTINUOUS
 10
1.9796380090497738
 20
-11.877828054294424
 11
2.319004524886878
 21
-11.877828054294424
  0
LINE
  8
0
 62
50
  6
CONTINUOUS
 10
2.319004524886878
 20
-11.877828054294424
 11
2.3190045248814766
 21
-12.217194570135746
  0
LINE
  8
0
 62
50
  6
CONTINUOUS
 10
1.6402714932072682
 20
-12.895927601809955
 11
-1.6402714932180711
 21
-12.895927601805736
  0
LINE
  8
0
 62
50
  6
CONTINUOUS
 10
-2.319004524892279
 20
-12.217194570135746
 11
-2.3190045248868909
 21
-11.877828054294424
  0
LINE
  8
0
 62
50
  6
CONTINUOUS
 10
-2.3190045248868909
 20
-11.877828054294424
 11
-1.9796380090497867
 21
-11.877828054294424
  0
LINE
  8
0
 62
50
  6
CONTINUOUS
 10
1.4140271493212606
 20
-11.425339366511619
 11
1.4140271493212606
 21
-12.33031674207723
  0
LINE
  8
0
 62
50
  6
CONTINUOUS
 10
1.4140271493212606
 20
-12.33031674207723
 11
-1.4140271493212735
 21
-12.33031674207723
  0
LINE
  8
0
 62
50
  6
CONTINUOUS
 10
-1.4140271493212735
 20
-12.33031674207723
 11
-1.4140271493212735
 21
-11.425339366511619
  0
LINE
  8
0
 62
50
  6
CONTINUOUS
 10
-1.4140271493212735
 20
-11.425339366511619
 11
1.4140271493212606
 21
-11.425339366511619
  0
INSERT
  8
249
 62
5
  6
DASHDOT
  2
TELL_7
 10
-3.9340275632352941e-011
 20
-12.895927602036199
 41
1.0
 42
1.0
 50
0.0
  0
LINE
  8
0
 62
5
  6
DASHDOT
 10
-6.4302510023538479e-015
 20
-17.873303167416598
 11
-6.4302510023538479e-015
 21
-5.8823529411722522
  0
LINE
  8
0
 62
50
  6
CONTINUOUS
 10
2.432126696832579
 20
-6.2217194570093568
 11
2.432126696832579
 21
-17.533936651579491
  0
LINE
  8
0
 62
50
  6
CONTINUOUS
 10
-2.432126696832579
 20
-17.533936651579491
 11
-2.432126696832579
 21
-6.2217194570093568
  0
LINE
  8
0
 62
50
  6
CONTINUOUS
 10
-2.432126696832579
 20
-17.533936651579491
 11
2.432126696832579
 21
-17.533936651579491
  0
LINE
  8
0
 62
50
  6
CONTINUOUS
 10
-2.432126696832579
 20
-6.2217194570093568
 11
2.432126696832579
 21
-6.2217194570093568
  0
LINE
  8
0
 62
5
  6
CONTINUOUS
 10
1.7533936651190307
 20
-6.2217194572058645
 11
1.7533936651190307
 21
-12.530728348608601
  0
LINE
  8
0
 62
5
  6
CONTINUOUS
 10
-1.7533936651977113
 20
-17.533936651775999
 11
-1.7533936651977113
 21
-12.87358837688914
  0
LINE
  8
0
 62
5
  6
CONTINUOUS
 10
-1.7533936651977113
 20
-12.534059686843872
 11
-1.7533936651977113
 21
-6.2217194572058645
  0
LINE
  8
0
 62
5
  6
CONTINUOUS
 10
1.7533936651190307
 20
-12.87358837688914
 11
1.7533936651190307
 21
-17.533936651775999
  0
CIRCLE
  8
0
 62
50
  6
CONTINUOUS
 10
0
 20
-7.6923076923035252
 40
0.56561085972852931
  0
CIRCLE
  8
0
 62
50
  6
CONTINUOUS
 10
0
 20
-16.063348416285375
 40
0.5656108597285161
  0
LINE
  8
0
 62
5
  6
DASHDOT
 10
-0.67873303167422105
 20
-16.063348416285375
 11
0.67873303167422105
 21
-16.063348416285375
  0
LINE
  8
0
 62
5
  6
DASHDOT
 10
-0.67873303167423382
 20
-7.6923076923035252
 11
0.67873303167423382
 21
-7.6923076923035252
  0
ARC
  8
0
 62
50
  6
CONTINUOUS
 10
-1.6402714932126761
 20
-12.217194570131529
 40
0.33936651583710409
 50
180.00000000071216
 51
270
  0
ARC
  8
0
 62
50
  6
CONTINUOUS
 10
1.6402714932126696
 20
-12.217194570135746
 40
0.33936651583710409
 50
270
 51
0
  0
ARC
  8
0
 62
50
  6
CONTINUOUS
 10
-1.6402714932126825
 20
-12.217194570131529
 40
0.67873303167420818
 50
180.0000000003561
 51
270
  0
ARC
  8
0
 62
50
  6
CONTINUOUS
 10
1.6402714932126696
 20
-12.217194570131529
 40
0.67873303167420818
 50
270
 51
359.99999999964393
  0
ENDBLK
  0
ENDSEC
  0
SECTION
  2
ENTITIES
  0
INSERT
  8
0
 62
50
  6
CONTINUOUS
  2
TELL_1
 10
-3.934027563240084e-011
 20
-1.9229022597438946e-010
 41
1.0
 42
1.0
 50
0.0
  0
INSERT
  8
0
 62
50
  6
CONTINUOUS
  2
3_51_CKEB
 10
12.613122171945701
 20
-1.9229022597398192e-010
 41
1.0
 42
1.0
 50
0.0
  0
INSERT
  8
0
 62
50
  6
CONTINUOUS
  2
TELL_6
 10
-3.9340275632352941e-011
 20
-11.877828054524887
 41
1.0
 42
1.0
 50
0.0
  0
ENDSEC
  0
EOF
