  0
SECTION
  2
HEADER
  9
$ACADVER
  1
AC1009
  9
$EXTMIN
 10
-13.640962197994213
 20
-8.7774383015499247
  9
$EXTMAX
 10
11.359037802005785
 20
8.7774383015499247
  9
$TEXTSTYLE
  7
STANDARD
  9
$DIMLFAC
 40
1
  9
$REGENMODE
 70
1
  9
$DRAGMODE
 70
2
  9
$DIMASO
 70
1
  9
$LTSCALE
 40
1.0000000000
  0
ENDSEC
  0
SECTION
  2
TABLES
  0
TABLE
  2
LTYPE
 70
4
  0
LTYPE
  2
CONTINUOUS
 70
64
  3
CONTINUOUS
 72
65
 73
0
 40
0.0000000000
  0
LTYPE
  2
HIDDEN
 70
64
  3
HIDDEN
 72
65
 73
2
 40
0.5000000000
 49
0.2500000000
 49
-0.2500000000
  0
LTYPE
  2
DASHDOT
 70
64
  3
DASHDOT
 72
65
 73
4
 40
1.0000000000
 49
0.5000000000
 49
-0.2500000000
 49
0.0000000000
 49
-0.2500000000
  0
LTYPE
  2
DASHED
 70
64
  3
DASHED
 72
65
 73
2
 40
0.7500000000
 49
0.5000000000
 49
-0.2500000000
  0
ENDTAB
  0
TABLE
  2
LAYER
 70
3
  0
LAYER
  2
0
 70
0
 62
2
  6
CONTINUOUS
  0
LAYER
  2
1
 70
0
 62
2
  6
CONTINUOUS
  0
LAYER
  2
249
 70
0
 62
2
  6
CONTINUOUS
  0
ENDTAB
  0
TABLE
  2
STYLE
 70
0
  0
STYLE
  2
Standard
 70
0
 40
0
 41
1
 50
0
 71
0
 42
2.5
  3
txt
  4

  0
ENDTAB
  0
ENDSEC
  0
SECTION
  2
BLOCKS
  0
BLOCK
  8
1
 62
5
  6
CONTINUOUS
  2
TELL_1
 70
0
 10
1.032639800182344
 20
0
  0
POLYLINE
  8
0
 62
50
  6
CONTINUOUS
 66
1
 70
1
  0
VERTEX
  8
0
 62
50
  6
CONTINUOUS
 10
1.032639800182344
 20
-1.2961064202346628
  0
VERTEX
  8
0
 62
50
  6
CONTINUOUS
 10
11.359037802005783
 20
-1.2961064202346628
  0
VERTEX
  8
0
 62
50
  6
CONTINUOUS
 10
11.359037802005783
 20
1.2854930802211946
  0
VERTEX
  8
0
 62
50
  6
CONTINUOUS
 10
1.032639800182344
 20
1.2854930802211946
  0
SEQEND
  0
LINE
  8
0
 62
5
  6
HIDDEN
 10
1.032639800182344
 20
0.97570114016649112
 11
11.359037802005785
 21
0.97570114016649112
  0
LINE
  8
0
 62
5
  6
HIDDEN
 10
11.359037802005785
 20
-0.98631448017995971
 11
1.032639800182344
 21
-0.98631448017995971
  0
ENDBLK
  0
BLOCK
  8
249
 62
5
  6
DASHDOT
  2
TELL_2
 70
0
 10
4.1305592007293717
 20
0
  0
CIRCLE
  8
249
 62
50
  6
CONTINUOUS
 10
4.1305592007293717
 20
0
 40
0.42131703847439639
  0
ARC
  8
249
 62
5
  6
CONTINUOUS
 10
4.1305592007293717
 20
0
 40
0.51631990009117201
 50
175.00000000000003
 51
90
  0
LINE
  8
249
 62
5
  6
DASHDOT
 10
4.1305592007293717
 20
0.7228478601276408
 11
4.1305592007293717
 21
-0.7228478601276408
  0
LINE
  8
249
 62
5
  6
DASHDOT
 10
3.4077113406017308
 20
0
 11
4.8534070608570126
 21
0
  0
ENDBLK
  0
BLOCK
  8
249
 62
5
  6
DASHDOT
  2
TELL_3
 70
0
 10
9.8100781017361154
 20
0
  0
CIRCLE
  8
249
 62
50
  6
CONTINUOUS
 10
9.8100781017361154
 20
0
 40
0.42131703847439639
  0
ARC
  8
249
 62
5
  6
CONTINUOUS
 10
9.8100781017361154
 20
0
 40
0.51631990009117201
 50
175.00000000000003
 51
90
  0
LINE
  8
249
 62
5
  6
DASHDOT
 10
9.8100781017361154
 20
0.7228478601276408
 11
9.8100781017361154
 21
-0.7228478601276408
  0
LINE
  8
249
 62
5
  6
DASHDOT
 10
9.0872302416084754
 20
0
 11
10.532925961863757
 21
0
  0
ENDBLK
  0
BLOCK
  8
0
 62
5
  6
DASHDOT
  2
APPLIQUE_CPB_DROITE
 70
0
 10
0
 20
0
  0
POLYLINE
  8
0
 62
50
  6
CONTINUOUS
 66
1
 70
1
  0
VERTEX
  8
0
 62
50
  6
CONTINUOUS
 10
-8.03601721514874e-090
 20
-8.7774383015499247
  0
VERTEX
  8
0
 62
50
  6
CONTINUOUS
 10
1.0326398001823398
 20
-8.7774383015499247
  0
VERTEX
  8
0
 62
50
  6
CONTINUOUS
 10
1.0326398001823398
 20
8.7774383015499211
  0
VERTEX
  8
0
 62
50
  6
CONTINUOUS
 10
-8.03601721514874e-090
 20
8.7774383015499211
  0
SEQEND
  0
LINE
  8
0
 62
5
  6
HIDDEN
 10
-8.03601721514874e-090
 20
-7.7447985013675806
 11
1.0326398001823396
 21
-7.7447985013675806
  0
LINE
  8
0
 62
5
  6
HIDDEN
 10
-8.03601721514874e-090
 20
-4.6468791008205486
 11
1.032639800182344
 21
-4.6468791008205486
  0
LINE
  8
0
 62
5
  6
HIDDEN
 10
-8.03601721514874e-090
 20
7.7447985013675771
 11
1.0326398001823396
 21
7.7447985013675771
  0
LINE
  8
0
 62
5
  6
HIDDEN
 10
-8.03601721514874e-090
 20
4.646879100820545
 11
1.032639800182344
 21
4.646879100820545
  0
LINE
  8
0
 62
5
  6
DASHDOT
 10
-0.58996467049400059
 20
6.1958388010940615
 11
1.5630919534101757
 21
6.1958388010940615
  0
LINE
  8
0
 62
5
  6
DASHDOT
 10
-0.58996467049400059
 20
-6.1958388010940642
 11
1.5630919534101757
 21
-6.1958388010940642
  0
INSERT
  8
1
 62
5
  6
CONTINUOUS
  2
TELL_1
 10
1.032639800182344
 20
0
 41
1.0
 42
1.0
 50
0.0
  0
INSERT
  8
249
 62
5
  6
DASHDOT
  2
TELL_2
 10
4.1305592007293717
 20
0
 41
1.0
 42
1.0
 50
0.0
  0
INSERT
  8
249
 62
5
  6
DASHDOT
  2
TELL_3
 10
9.8100781017361154
 20
0
 41
1.0
 42
1.0
 50
0.0
  0
ENDBLK
  0
BLOCK
  8
249
 62
50
  6
CONTINUOUS
  2
RHS_50_25_3
 70
0
 10
-10.026722897357166
 20
-0.0053066700067376854
  0
ARC
  8
249
 62
50
  6
CONTINUOUS
 10
-7.9098113069822027
 20
-0.83141851015260571
 40
0.46468791008205484
 50
270
 51
0
  0
LINE
  8
249
 62
50
  6
CONTINUOUS
 10
-7.9098113069822027
 20
-1.2961064202346606
 11
-12.143634487729813
 21
-1.2961064202346679
  0
ARC
  8
249
 62
50
  6
CONTINUOUS
 10
-12.143634487729813
 20
-0.83141851015261303
 40
0.46468791008205484
 50
180
 51
270
  0
LINE
  8
249
 62
50
  6
CONTINUOUS
 10
-12.608322397811868
 20
-0.83141851015261481
 11
-12.608322397811868
 21
0.82080517013913579
  0
ARC
  8
249
 62
50
  6
CONTINUOUS
 10
-12.143634487729816
 20
0.82080517013913756
 40
0.46468791008205484
 50
90
 51
180
  0
LINE
  8
249
 62
50
  6
CONTINUOUS
 10
-12.143634487729816
 20
1.2854930802211924
 11
-7.9098113069822054
 21
1.2854930802211997
  0
ARC
  8
249
 62
50
  6
CONTINUOUS
 10
-7.9098113069822054
 20
0.82080517013914489
 40
0.46468791008205484
 50
0
 51
90
  0
LINE
  8
249
 62
50
  6
CONTINUOUS
 10
-7.4451233969001507
 20
0.82080517013914522
 11
-7.4451233969001507
 21
-0.83141851015260526
  0
ARC
  8
249
 62
50
  6
CONTINUOUS
 10
-7.9098113069822027
 20
-0.83141851015260571
 40
0.15489597002735161
 50
270
 51
0
  0
LINE
  8
249
 62
50
  6
CONTINUOUS
 10
-7.9098113069822027
 20
-0.98631448017995726
 11
-12.143634487729813
 21
-0.98631448017996459
  0
ARC
  8
249
 62
50
  6
CONTINUOUS
 10
-12.143634487729813
 20
-0.83141851015261303
 40
0.15489597002735161
 50
180
 51
270
  0
LINE
  8
249
 62
50
  6
CONTINUOUS
 10
-12.298530457757165
 20
-0.83141851015261314
 11
-12.298530457757165
 21
0.82080517013913745
  0
ARC
  8
249
 62
50
  6
CONTINUOUS
 10
-12.143634487729816
 20
0.82080517013913756
 40
0.15489597002735161
 50
90
 51
180
  0
LINE
  8
249
 62
50
  6
CONTINUOUS
 10
-12.143634487729816
 20
0.97570114016648912
 11
-7.9098113069822054
 21
0.97570114016649645
  0
ARC
  8
249
 62
50
  6
CONTINUOUS
 10
-7.9098113069822054
 20
0.82080517013914489
 40
0.15489597002735161
 50
0
 51
90
  0
LINE
  8
249
 62
50
  6
CONTINUOUS
 10
-7.7549153369548538
 20
0.82080517013914511
 11
-7.7549153369548538
 21
-0.83141851015260548
  0
ENDBLK
  0
BLOCK
  8
249
 62
5
  6
DASHDOT
  2
TELL_4
 70
0
 10
-12.298530457799627
 20
0
  0
LINE
  8
249
 62
5
  6
DASHED
 10
-12.298530457757167
 20
0.42131703847439622
 11
-12.60832239781187
 21
0.421317038474396
  0
LINE
  8
249
 62
5
  6
DASHED
 10
-12.298530457757167
 20
-0.42131703847439622
 11
-12.60832239781187
 21
-0.42131703847439639
  0
LINE
  8
249
 62
5
  6
DASHED
 10
-12.298530457757167
 20
0.51631990009117201
 11
-12.60832239781187
 21
0.51631990009117179
  0
LINE
  8
249
 62
5
  6
DASHED
 10
-12.298530457757167
 20
-0.51631990009117201
 11
-12.60832239781187
 21
-0.51631990009117223
  0
LINE
  8
249
 62
5
  6
DASHDOT
 10
-12.814850357848339
 20
-3.6373783697453602e-016
 11
-12.092002497720697
 21
1.4549513483169281e-016
  0
ENDBLK
  0
BLOCK
  8
0
 62
5
  6
DASHDOT
  2
APPLIQUE_CPB_FACE
 70
0
 10
-10.026722897356009
 20
0
  0
POLYLINE
  8
0
 62
50
  6
CONTINUOUS
 66
1
 70
1
  0
VERTEX
  8
0
 62
50
  6
CONTINUOUS
 10
-13.640962197994213
 20
-8.7774383015499247
  0
VERTEX
  8
0
 62
50
  6
CONTINUOUS
 10
-6.4124835967178049
 20
-8.7774383015499247
  0
VERTEX
  8
0
 62
50
  6
CONTINUOUS
 10
-6.4124835967178049
 20
8.7774383015499247
  0
VERTEX
  8
0
 62
50
  6
CONTINUOUS
 10
-13.640962197994213
 20
8.7774383015499247
  0
SEQEND
  0
ARC
  8
0
 62
50
  6
CONTINUOUS
 10
-10.026722897356006
 20
7.0219506412399371
 40
0.7228478601276408
 50
0
 51
180
  0
LINE
  8
0
 62
50
  6
CONTINUOUS
 10
-9.3038750372283641
 20
7.0219506412399371
 11
-9.3038750372283641
 21
5.3697269609481859
  0
ARC
  8
0
 62
50
  6
CONTINUOUS
 10
-10.026722897356006
 20
5.3697269609481859
 40
0.7228478601276408
 50
180
 51
0
  0
LINE
  8
0
 62
50
  6
CONTINUOUS
 10
-10.749570757483646
 20
5.3697269609481859
 11
-10.749570757483646
 21
7.0219506412399371
  0
LINE
  8
0
 62
5
  6
DASHDOT
 10
-10.904466727510998
 20
6.1958388010940615
 11
-9.1489790672010134
 21
6.1958388010940615
  0
LINE
  8
0
 62
5
  6
DASHDOT
 10
-10.026722897356006
 20
7.8996944713949286
 11
-10.026722897356006
 21
4.4919831307931934
  0
ARC
  8
0
 62
50
  6
CONTINUOUS
 10
-10.026722897356006
 20
-5.3697269609481895
 40
0.7228478601276408
 50
0
 51
180
  0
LINE
  8
0
 62
50
  6
CONTINUOUS
 10
-9.3038750372283641
 20
-5.3697269609481895
 11
-9.3038750372283641
 21
-7.0219506412399397
  0
ARC
  8
0
 62
50
  6
CONTINUOUS
 10
-10.026722897356006
 20
-7.0219506412399397
 40
0.7228478601276408
 50
180
 51
0
  0
LINE
  8
0
 62
50
  6
CONTINUOUS
 10
-10.749570757483646
 20
-7.0219506412399397
 11
-10.749570757483646
 21
-5.3697269609481895
  0
LINE
  8
0
 62
5
  6
DASHDOT
 10
-10.904466727510998
 20
-6.1958388010940642
 11
-9.1489790672010134
 21
-6.1958388010940642
  0
LINE
  8
0
 62
5
  6
DASHDOT
 10
-10.026722897356006
 20
-4.491983130793197
 11
-10.026722897356006
 21
-7.8996944713949322
  0
INSERT
  8
249
 62
50
  6
CONTINUOUS
  2
RHS_50_25_3
 10
-10.026722897357166
 20
-0.0053066700067376854
 41
1.0
 42
1.0
 50
0.0
  0
INSERT
  8
249
 62
5
  6
DASHDOT
  2
TELL_4
 10
-12.298530457799627
 20
0
 41
1.0
 42
1.0
 50
0.0
  0
ENDBLK
  0
ENDSEC
  0
SECTION
  2
ENTITIES
  0
INSERT
  8
0
 62
5
  6
DASHDOT
  2
APPLIQUE_CPB_DROITE
 10
0
 20
0
 41
1.0
 42
1.0
 50
0.0
  0
INSERT
  8
0
 62
5
  6
DASHDOT
  2
APPLIQUE_CPB_FACE
 10
-10.026722897356009
 20
0
 41
1.0
 42
1.0
 50
0.0
  0
ENDSEC
  0
EOF
