  0
SECTION
  2
HEADER
  9
$ACADVER
  1
AC1009
  9
$EXTMIN
 10
-13.297872340424973
 20
-12.234042553192072
  9
$EXTMAX
 10
11.702127659575025
 20
12.234042553192072
  9
$TEXTSTYLE
  7
STANDARD
  9
$DIMLFAC
 40
1
  9
$REGENMODE
 70
1
  9
$DRAGMODE
 70
2
  9
$DIMASO
 70
1
  9
$LTSCALE
 40
1.0000000000
  0
ENDSEC
  0
SECTION
  2
TABLES
  0
TABLE
  2
LTYPE
 70
5
  0
LTYPE
  2
CONTINUOUS
 70
64
  3
CONTINUOUS
 72
65
 73
0
 40
0.0000000000
  0
LTYPE
  2
HIDDEN
 70
64
  3
HIDDEN
 72
65
 73
2
 40
0.5000000000
 49
0.2500000000
 49
-0.2500000000
  0
LTYPE
  2
DASHDOT
 70
64
  3
DASHDOT
 72
65
 73
4
 40
1.0000000000
 49
0.5000000000
 49
-0.2500000000
 49
0.0000000000
 49
-0.2500000000
  0
LTYPE
  2
DIVIDE
 70
64
  3
DIVIDE
 72
65
 73
6
 40
1.2500000000
 49
0.5000000000
 49
-0.2500000000
 49
0.0000000000
 49
-0.2500000000
 49
0.0000000000
 49
-0.2500000000
  0
LTYPE
  2
DASHED
 70
64
  3
DASHED
 72
65
 73
2
 40
0.7500000000
 49
0.5000000000
 49
-0.2500000000
  0
ENDTAB
  0
TABLE
  2
LAYER
 70
3
  0
LAYER
  2
0
 70
0
 62
2
  6
CONTINUOUS
  0
LAYER
  2
1
 70
0
 62
2
  6
CONTINUOUS
  0
LAYER
  2
249
 70
0
 62
2
  6
CONTINUOUS
  0
ENDTAB
  0
TABLE
  2
STYLE
 70
0
  0
STYLE
  2
Standard
 70
0
 40
0
 41
1
 50
0
 71
0
 42
2.5
  3
txt
  4

  0
ENDTAB
  0
ENDSEC
  0
SECTION
  2
BLOCKS
  0
BLOCK
  8
249
 62
50
  6
CONTINUOUS
  2
RHS_50_25_3
 70
0
 10
-9.5690011317451358
 20
3.2978723404256889
  0
ARC
  8
249
 62
50
  6
CONTINUOUS
 10
-8.7179373019594291
 20
5.4787234042555797
 40
0.47872340425534193
 50
0
 51
90
  0
LINE
  8
249
 62
50
  6
CONTINUOUS
 10
-8.2392138977040883
 20
5.4787234042555797
 11
-8.2392138977040883
 21
1.1170212765957979
  0
ARC
  8
249
 62
50
  6
CONTINUOUS
 10
-8.7179373019594291
 20
1.1170212765957979
 40
0.47872340425534193
 50
270
 51
0
  0
LINE
  8
249
 62
50
  6
CONTINUOUS
 10
-8.7179373019594291
 20
0.63829787234045599
 11
-10.42006496153398
 21
0.63829787234045599
  0
ARC
  8
249
 62
50
  6
CONTINUOUS
 10
-10.42006496153398
 20
1.1170212765957979
 40
0.47872340425534193
 50
180
 51
270
  0
LINE
  8
249
 62
50
  6
CONTINUOUS
 10
-10.89878836578932
 20
1.1170212765957979
 11
-10.89878836578932
 21
5.4787234042555797
  0
ARC
  8
249
 62
50
  6
CONTINUOUS
 10
-10.42006496153398
 20
5.4787234042555797
 40
0.47872340425534193
 50
90
 51
180
  0
LINE
  8
249
 62
50
  6
CONTINUOUS
 10
-10.42006496153398
 20
5.9574468085109222
 11
-8.7179373019594291
 21
5.9574468085109222
  0
ARC
  8
249
 62
50
  6
CONTINUOUS
 10
-8.7179373019594291
 20
5.4787234042555797
 40
0.159574468085114
 50
0
 51
90
  0
LINE
  8
249
 62
50
  6
CONTINUOUS
 10
-8.5583628338743161
 20
5.4787234042555797
 11
-8.5583628338743161
 21
1.1170212765957979
  0
ARC
  8
249
 62
50
  6
CONTINUOUS
 10
-8.7179373019594291
 20
1.1170212765957979
 40
0.159574468085114
 50
270
 51
0
  0
LINE
  8
249
 62
50
  6
CONTINUOUS
 10
-8.7179373019594291
 20
0.95744680851068387
 11
-10.42006496153398
 21
0.95744680851068387
  0
ARC
  8
249
 62
50
  6
CONTINUOUS
 10
-10.42006496153398
 20
1.1170212765957979
 40
0.159574468085114
 50
180
 51
270
  0
LINE
  8
249
 62
50
  6
CONTINUOUS
 10
-10.579639429619093
 20
1.1170212765957979
 11
-10.579639429619093
 21
5.4787234042555797
  0
ARC
  8
249
 62
50
  6
CONTINUOUS
 10
-10.42006496153398
 20
5.4787234042555797
 40
0.159574468085114
 50
90
 51
180
  0
LINE
  8
249
 62
50
  6
CONTINUOUS
 10
-10.42006496153398
 20
5.6382978723406945
 11
-8.7179373019594291
 21
5.6382978723406945
  0
ENDBLK
  0
BLOCK
  8
0
 62
50
  6
CONTINUOUS
  2
RHS_50_25_3_2
 70
0
 10
-9.5690011317451358
 20
-3.2978723404256889
  0
ARC
  8
0
 62
50
  6
CONTINUOUS
 10
-8.7179373019594291
 20
-5.4787234042555797
 40
0.47872340425534193
 50
270
 51
0
  0
LINE
  8
0
 62
50
  6
CONTINUOUS
 10
-8.2392138977040883
 20
-5.4787234042555797
 11
-8.2392138977040883
 21
-1.1170212765957979
  0
ARC
  8
0
 62
50
  6
CONTINUOUS
 10
-8.7179373019594291
 20
-1.1170212765957979
 40
0.47872340425534193
 50
0
 51
90
  0
LINE
  8
0
 62
50
  6
CONTINUOUS
 10
-8.7179373019594291
 20
-0.63829787234045599
 11
-10.42006496153398
 21
-0.63829787234045599
  0
ARC
  8
0
 62
50
  6
CONTINUOUS
 10
-10.42006496153398
 20
-1.1170212765957979
 40
0.47872340425534193
 50
90
 51
180
  0
LINE
  8
0
 62
50
  6
CONTINUOUS
 10
-10.89878836578932
 20
-1.1170212765957979
 11
-10.89878836578932
 21
-5.4787234042555797
  0
ARC
  8
0
 62
50
  6
CONTINUOUS
 10
-10.42006496153398
 20
-5.4787234042555797
 40
0.47872340425534193
 50
180
 51
270
  0
LINE
  8
0
 62
50
  6
CONTINUOUS
 10
-10.42006496153398
 20
-5.9574468085109222
 11
-8.7179373019594291
 21
-5.9574468085109222
  0
ARC
  8
0
 62
50
  6
CONTINUOUS
 10
-8.7179373019594291
 20
-5.4787234042555797
 40
0.159574468085114
 50
270
 51
0
  0
LINE
  8
0
 62
50
  6
CONTINUOUS
 10
-8.5583628338743161
 20
-5.4787234042555797
 11
-8.5583628338743161
 21
-1.1170212765957979
  0
ARC
  8
0
 62
50
  6
CONTINUOUS
 10
-8.7179373019594291
 20
-1.1170212765957979
 40
0.159574468085114
 50
0
 51
90
  0
LINE
  8
0
 62
50
  6
CONTINUOUS
 10
-8.7179373019594291
 20
-0.95744680851068387
 11
-10.42006496153398
 21
-0.95744680851068387
  0
ARC
  8
0
 62
50
  6
CONTINUOUS
 10
-10.42006496153398
 20
-1.1170212765957979
 40
0.159574468085114
 50
90
 51
180
  0
LINE
  8
0
 62
50
  6
CONTINUOUS
 10
-10.579639429619093
 20
-1.1170212765957979
 11
-10.579639429619093
 21
-5.4787234042555797
  0
ARC
  8
0
 62
50
  6
CONTINUOUS
 10
-10.42006496153398
 20
-5.4787234042555797
 40
0.159574468085114
 50
180
 51
270
  0
LINE
  8
0
 62
50
  6
CONTINUOUS
 10
-10.42006496153398
 20
-5.6382978723406945
 11
-8.7179373019594291
 21
-5.6382978723406945
  0
ENDBLK
  0
BLOCK
  8
0
 62
5
  6
DASHDOT
  2
APPLIQUE_CPD_FACE
 70
0
 10
-9.5744680851056483
 20
0
  0
POLYLINE
  8
0
 62
50
  6
CONTINUOUS
 66
1
 70
1
  0
VERTEX
  8
0
 62
50
  6
CONTINUOUS
 10
-13.297872340424973
 20
-12.234042553192072
  0
VERTEX
  8
0
 62
50
  6
CONTINUOUS
 10
-5.8510638297863213
 20
-12.234042553192072
  0
VERTEX
  8
0
 62
50
  6
CONTINUOUS
 10
-5.8510638297863213
 20
12.234042553192072
  0
VERTEX
  8
0
 62
50
  6
CONTINUOUS
 10
-13.297872340424973
 20
12.234042553192072
  0
SEQEND
  0
ARC
  8
0
 62
50
  6
CONTINUOUS
 10
-9.574468085105643
 20
10.42553191489411
 40
0.74468085106386528
 50
0
 51
180
  0
LINE
  8
0
 62
50
  6
CONTINUOUS
 10
-8.8297872340417776
 20
10.42553191489411
 11
-8.8297872340417776
 21
8.7234042553195614
  0
ARC
  8
0
 62
50
  6
CONTINUOUS
 10
-9.574468085105643
 20
8.7234042553195614
 40
0.74468085106386528
 50
180
 51
0
  0
LINE
  8
0
 62
50
  6
CONTINUOUS
 10
-10.319148936169508
 20
8.7234042553195614
 11
-10.319148936169508
 21
10.42553191489411
  0
LINE
  8
0
 62
5
  6
DASHDOT
 10
-10.478723404254623
 20
9.5744680851068367
 11
-8.6702127659566646
 21
9.5744680851068367
  0
LINE
  8
0
 62
5
  6
DASHDOT
 10
-9.574468085105643
 20
11.32978723404309
 11
-9.574468085105643
 21
7.8191489361705822
  0
ARC
  8
0
 62
50
  6
CONTINUOUS
 10
-9.574468085105643
 20
-8.723404255319565
 40
0.74468085106386528
 50
0
 51
180
  0
LINE
  8
0
 62
50
  6
CONTINUOUS
 10
-8.8297872340417776
 20
-8.723404255319565
 11
-8.8297872340417776
 21
-10.425531914894114
  0
ARC
  8
0
 62
50
  6
CONTINUOUS
 10
-9.574468085105643
 20
-10.425531914894114
 40
0.74468085106386528
 50
180
 51
0
  0
LINE
  8
0
 62
50
  6
CONTINUOUS
 10
-10.319148936169508
 20
-10.425531914894114
 11
-10.319148936169508
 21
-8.723404255319565
  0
LINE
  8
0
 62
5
  6
DASHDOT
 10
-10.478723404254623
 20
-9.5744680851068384
 11
-8.6702127659566646
 21
-9.5744680851068384
  0
LINE
  8
0
 62
5
  6
DASHDOT
 10
-9.574468085105643
 20
-7.8191489361705848
 11
-9.574468085105643
 21
-11.329787234043092
  0
INSERT
  8
249
 62
50
  6
CONTINUOUS
  2
RHS_50_25_3
 10
-9.5690011317451358
 20
3.2978723404256889
 41
1.0
 42
1.0
 50
0.0
  0
LINE
  8
249
 62
5
  6
DASHED
 10
-10.003043684938213
 20
5.9574468085109222
 11
-10.003043684938213
 21
5.6382978723406945
  0
LINE
  8
249
 62
5
  6
DASHED
 10
-9.1349585785551923
 20
5.9574468085109222
 11
-9.1349585785551923
 21
5.6382978723406945
  0
LINE
  8
249
 62
5
  6
DASHED
 10
-10.10091602536375
 20
5.9574468085109222
 11
-10.10091602536375
 21
5.6382978723406945
  0
LINE
  8
249
 62
5
  6
DASHED
 10
-9.0370862381296568
 20
5.9574468085109222
 11
-9.0370862381296568
 21
5.6382978723406945
  0
LINE
  8
249
 62
5
  6
DASHDOT
 10
-9.5690011317467025
 20
5.4255319148938757
 11
-9.5690011317467025
 21
6.170212765957741
  0
INSERT
  8
0
 62
50
  6
CONTINUOUS
  2
RHS_50_25_3_2
 10
-9.5690011317451358
 20
-3.2978723404256889
 41
1.0
 42
1.0
 50
0.0
  0
LINE
  8
0
 62
5
  6
DIVIDE
 10
-10.003043684938213
 20
-5.9574468085109222
 11
-10.003043684938213
 21
-5.6382978723406945
  0
LINE
  8
0
 62
5
  6
DIVIDE
 10
-9.1349585785551923
 20
-5.9574468085109222
 11
-9.1349585785551923
 21
-5.6382978723406945
  0
LINE
  8
0
 62
5
  6
DIVIDE
 10
-10.10091602536375
 20
-5.9574468085109222
 11
-10.10091602536375
 21
-5.6382978723406945
  0
LINE
  8
0
 62
5
  6
DIVIDE
 10
-9.0370862381296568
 20
-5.9574468085109222
 11
-9.0370862381296568
 21
-5.6382978723406945
  0
LINE
  8
0
 62
5
  6
DASHDOT
 10
-9.5690011317467025
 20
-5.4255319148938757
 11
-9.5690011317467025
 21
-6.170212765957741
  0
ENDBLK
  0
BLOCK
  8
1
 62
5
  6
CONTINUOUS
  2
TELL_1
 70
0
 10
1.0638297872340932
 20
3.2978723404256889
  0
POLYLINE
  8
0
 62
50
  6
CONTINUOUS
 66
1
 70
1
  0
VERTEX
  8
0
 62
50
  6
CONTINUOUS
 10
1.0638297872340932
 20
0.63829787234045599
  0
VERTEX
  8
0
 62
50
  6
CONTINUOUS
 10
11.702127659575025
 20
0.63829787234045599
  0
VERTEX
  8
0
 62
50
  6
CONTINUOUS
 10
11.702127659575025
 20
5.9574468085109213
  0
VERTEX
  8
0
 62
50
  6
CONTINUOUS
 10
1.0638297872340932
 20
5.9574468085109213
  0
SEQEND
  0
LINE
  8
0
 62
5
  6
HIDDEN
 10
1.0638297872340932
 20
5.6382978723406945
 11
11.702127659575025
 21
5.6382978723406945
  0
LINE
  8
0
 62
5
  6
HIDDEN
 10
11.702127659575025
 20
0.95744680851068387
 11
1.0638297872340932
 21
0.95744680851068387
  0
LINE
  8
249
 62
5
  6
CONTINUOUS
 10
3.8212765957448616
 20
5.9574468085109222
 11
3.8212765957448616
 21
5.6382978723406945
  0
LINE
  8
249
 62
5
  6
CONTINUOUS
 10
4.6893617021278811
 20
5.9574468085109222
 11
4.6893617021278811
 21
5.6382978723406945
  0
LINE
  8
249
 62
5
  6
CONTINUOUS
 10
3.7234042553193247
 20
5.9574468085109222
 11
3.7234042553193247
 21
5.6382978723406945
  0
LINE
  8
249
 62
5
  6
CONTINUOUS
 10
4.7872340425534183
 20
5.9574468085109222
 11
4.7872340425534183
 21
5.6382978723406945
  0
LINE
  8
249
 62
5
  6
DASHDOT
 10
4.2553191489363718
 20
5.2305302826148221
 11
4.2553191489363718
 21
6.170212765957741
  0
LINE
  8
249
 62
5
  6
CONTINUOUS
 10
9.6723404255363441
 20
5.9574468085109222
 11
9.6723404255363441
 21
5.6382978723406945
  0
LINE
  8
249
 62
5
  6
CONTINUOUS
 10
10.540425531919361
 20
5.9574468085109222
 11
10.540425531919361
 21
5.6382978723406945
  0
LINE
  8
249
 62
5
  6
CONTINUOUS
 10
9.574468085110805
 20
5.9574468085109222
 11
9.574468085110805
 21
5.6382978723406945
  0
LINE
  8
249
 62
5
  6
CONTINUOUS
 10
10.6382978723449
 20
5.9574468085109222
 11
10.6382978723449
 21
5.6382978723406945
  0
LINE
  8
249
 62
5
  6
DASHDOT
 10
10.106382978727853
 20
5.2305302826148221
 11
10.106382978727853
 21
6.170212765957741
  0
ENDBLK
  0
BLOCK
  8
0
 62
5
  6
CONTINUOUS
  2
TELL_2
 70
0
 10
1.0638297872340932
 20
-3.2978723404256889
  0
POLYLINE
  8
0
 62
50
  6
CONTINUOUS
 66
1
 70
1
  0
VERTEX
  8
0
 62
50
  6
CONTINUOUS
 10
1.0638297872340932
 20
-0.63829787234045599
  0
VERTEX
  8
0
 62
50
  6
CONTINUOUS
 10
11.702127659575025
 20
-0.63829787234045599
  0
VERTEX
  8
0
 62
50
  6
CONTINUOUS
 10
11.702127659575025
 20
-5.9574468085109213
  0
VERTEX
  8
0
 62
50
  6
CONTINUOUS
 10
1.0638297872340932
 20
-5.9574468085109213
  0
SEQEND
  0
LINE
  8
0
 62
5
  6
HIDDEN
 10
1.0638297872340932
 20
-5.6382978723406945
 11
11.702127659575025
 21
-5.6382978723406945
  0
LINE
  8
0
 62
5
  6
HIDDEN
 10
11.702127659575025
 20
-0.95744680851068387
 11
1.0638297872340932
 21
-0.95744680851068387
  0
LINE
  8
0
 62
5
  6
CONTINUOUS
 10
3.8212765957448616
 20
-5.9574468085109222
 11
3.8212765957448616
 21
-5.6382978723406945
  0
LINE
  8
0
 62
5
  6
CONTINUOUS
 10
4.6893617021278811
 20
-5.9574468085109222
 11
4.6893617021278811
 21
-5.6382978723406945
  0
LINE
  8
0
 62
5
  6
CONTINUOUS
 10
3.7234042553193247
 20
-5.9574468085109222
 11
3.7234042553193247
 21
-5.6382978723406945
  0
LINE
  8
0
 62
5
  6
CONTINUOUS
 10
4.7872340425534183
 20
-5.9574468085109222
 11
4.7872340425534183
 21
-5.6382978723406945
  0
LINE
  8
0
 62
5
  6
DASHDOT
 10
4.2553191489363718
 20
-5.1181813947351475
 11
4.2553191489363718
 21
-6.3867564642815999
  0
LINE
  8
0
 62
5
  6
CONTINUOUS
 10
9.6723404255363441
 20
-5.9574468085109222
 11
9.6723404255363441
 21
-5.6382978723406945
  0
LINE
  8
0
 62
5
  6
CONTINUOUS
 10
10.540425531919361
 20
-5.9574468085109222
 11
10.540425531919361
 21
-5.6382978723406945
  0
LINE
  8
0
 62
5
  6
CONTINUOUS
 10
9.574468085110805
 20
-5.9574468085109222
 11
9.574468085110805
 21
-5.6382978723406945
  0
LINE
  8
0
 62
5
  6
CONTINUOUS
 10
10.6382978723449
 20
-5.9574468085109222
 11
10.6382978723449
 21
-5.6382978723406945
  0
LINE
  8
0
 62
5
  6
DASHDOT
 10
10.106382978727853
 20
-5.1181813947351475
 11
10.106382978727853
 21
-6.3867564642815999
  0
ENDBLK
  0
BLOCK
  8
0
 62
5
  6
DASHDOT
  2
APPLIQUE_CPD_DROITE
 70
0
 10
0
 20
0
  0
POLYLINE
  8
0
 62
50
  6
CONTINUOUS
 66
1
 70
1
  0
VERTEX
  8
0
 62
50
  6
CONTINUOUS
 10
-8.2787381260063927e-090
 20
-12.234042553192072
  0
VERTEX
  8
0
 62
50
  6
CONTINUOUS
 10
1.0638297872340889
 20
-12.234042553192072
  0
VERTEX
  8
0
 62
50
  6
CONTINUOUS
 10
1.0638297872340889
 20
12.234042553192069
  0
VERTEX
  8
0
 62
50
  6
CONTINUOUS
 10
-8.2787381260063927e-090
 20
12.234042553192069
  0
SEQEND
  0
LINE
  8
0
 62
5
  6
HIDDEN
 10
-8.2787381260063927e-090
 20
-11.170212765957979
 11
1.0638297872340887
 21
-11.170212765957979
  0
LINE
  8
0
 62
5
  6
HIDDEN
 10
-8.2787381260063927e-090
 20
-7.9787234042556987
 11
1.0638297872340932
 21
-7.9787234042556987
  0
LINE
  8
0
 62
5
  6
HIDDEN
 10
-8.2787381260063927e-090
 20
11.170212765957976
 11
1.0638297872340887
 21
11.170212765957976
  0
LINE
  8
0
 62
5
  6
HIDDEN
 10
-8.2787381260063927e-090
 20
7.978723404255696
 11
1.0638297872340932
 21
7.978723404255696
  0
LINE
  8
0
 62
5
  6
DASHDOT
 10
-0.60778404025918686
 20
9.5744680851068367
 11
1.6103037864026168
 21
9.5744680851068367
  0
LINE
  8
0
 62
5
  6
DASHDOT
 10
-0.60778404025918686
 20
-9.5744680851068384
 11
1.6103037864026168
 21
-9.5744680851068384
  0
INSERT
  8
1
 62
5
  6
CONTINUOUS
  2
TELL_1
 10
1.0638297872340932
 20
3.2978723404256889
 41
1.0
 42
1.0
 50
0.0
  0
INSERT
  8
0
 62
5
  6
CONTINUOUS
  2
TELL_2
 10
1.0638297872340932
 20
-3.2978723404256889
 41
1.0
 42
1.0
 50
0.0
  0
ENDBLK
  0
ENDSEC
  0
SECTION
  2
ENTITIES
  0
INSERT
  8
0
 62
5
  6
DASHDOT
  2
APPLIQUE_CPD_FACE
 10
-9.5744680851056483
 20
0
 41
1.0
 42
1.0
 50
0.0
  0
INSERT
  8
0
 62
5
  6
DASHDOT
  2
APPLIQUE_CPD_DROITE
 10
0
 20
0
 41
1.0
 42
1.0
 50
0.0
  0
ENDSEC
  0
EOF
