  0
SECTION
  2
HEADER
  9
$ACADVER
  1
AC1009
  9
$EXTMIN
 10
-5.7736720554272516
 20
-18.071593533487299
  9
$EXTMAX
 10
17.898383371824455
 20
6.9284064665127021
  9
$TEXTSTYLE
  7
STANDARD
  9
$DIMLFAC
 40
1
  9
$REGENMODE
 70
1
  9
$DRAGMODE
 70
2
  9
$DIMASO
 70
1
  9
$LTSCALE
 40
1.0000000000
  0
ENDSEC
  0
SECTION
  2
TABLES
  0
TABLE
  2
LTYPE
 70
2
  0
LTYPE
  2
CONTINUOUS
 70
64
  3
CONTINUOUS
 72
65
 73
0
 40
0.0000000000
  0
LTYPE
  2
DASHDOT
 70
64
  3
DASHDOT
 72
65
 73
4
 40
1.0000000000
 49
0.5000000000
 49
-0.2500000000
 49
0.0000000000
 49
-0.2500000000
  0
ENDTAB
  0
TABLE
  2
LAYER
 70
2
  0
LAYER
  2
0
 70
0
 62
2
  6
CONTINUOUS
  0
LAYER
  2
249
 70
0
 62
2
  6
CONTINUOUS
  0
ENDTAB
  0
TABLE
  2
STYLE
 70
0
  0
STYLE
  2
Standard
 70
0
 40
0
 41
1
 50
0
 71
0
 42
2.5
  3
txt
  4

  0
ENDTAB
  0
ENDSEC
  0
SECTION
  2
BLOCKS
  0
BLOCK
  8
0
 62
140
  6
CONTINUOUS
  2
TELL_2
 70
0
 10
-2.8868360277136258
 20
0.72170900692840645
  0
LINE
  8
0
 62
50
  6
CONTINUOUS
 10
-4.9076212471131635
 20
0.57736720554272514
 11
-4.6189376443418011
 21
0.86605080831408776
  0
LINE
  8
0
 62
50
  6
CONTINUOUS
 10
-4.6189376443418011
 20
0.86605080831408776
 11
-4.6097476092697747
 21
0.86605080831408776
  0
LINE
  8
0
 62
50
  6
CONTINUOUS
 10
-4.6097476082324151
 20
0.86605080831408776
 11
-4.6088045834453064
 21
0.86479069942498055
  0
LINE
  8
0
 62
50
  6
CONTINUOUS
 10
-4.6088045834453064
 20
0.86479069803878883
 11
-4.6032565601191733
 21
0.86605080831408776
  0
LINE
  8
0
 62
50
  6
CONTINUOUS
 10
-4.6032565601191733
 20
0.86605080831408776
 11
-4.5839108774366251
 21
0.86605080831408776
  0
LINE
  8
0
 62
50
  6
CONTINUOUS
 10
-4.5839108741938457
 20
0.86605080831408776
 11
-4.5789135147411768
 21
0.86453852056226943
  0
LINE
  8
0
 62
50
  6
CONTINUOUS
 10
-4.5789135147411768
 20
0.86453852077010895
 11
-4.572467480667882
 21
0.86605080831408776
  0
LINE
  8
0
 62
50
  6
CONTINUOUS
 10
-4.5724674751643102
 20
0.86605080831408776
 11
-4.5388008304663616
 21
0.86605080831408776
  0
LINE
  8
0
 62
50
  6
CONTINUOUS
 10
-4.5388008190204605
 20
0.86605080831408776
 11
-4.5307633012284381
 21
0.86529489982735375
  0
LINE
  8
0
 62
50
  6
CONTINUOUS
 10
-4.5307633012284381
 20
0.86529489996737496
 11
-4.5276969062394672
 21
0.86605080831408776
  0
LINE
  8
0
 62
50
  6
CONTINUOUS
 10
-4.5276969009632948
 20
0.86605080831408776
 11
-4.4698347958470492
 21
0.86605080831408776
  0
LINE
  8
0
 62
50
  6
CONTINUOUS
 10
-4.469834791574157
 20
0.86605080831408776
 11
-4.4667683956703872
 21
0.86529489981580121
  0
LINE
  8
0
 62
50
  6
CONTINUOUS
 10
-4.4667683956703872
 20
0.86529489988183417
 11
-4.4539767603703213
 21
0.86605080831408776
  0
LINE
  8
0
 62
50
  6
CONTINUOUS
 10
-4.4539767411646238
 20
0.86605080831408776
 11
-4.4003965832169394
 21
0.86605080831408776
  0
LINE
  8
0
 62
50
  6
CONTINUOUS
 10
-4.4003965757680623
 20
0.86605080831408776
 11
-4.3901377698512185
 21
0.86453852062066194
  0
LINE
  8
0
 62
50
  6
CONTINUOUS
 10
-4.3901377698512185
 20
0.86453852066453507
 11
-4.3758561381422743
 21
0.86605080831408776
  0
LINE
  8
0
 62
50
  6
CONTINUOUS
 10
-4.3758561271474186
 20
0.86605080831408776
 11
-4.3205693420767162
 21
0.86605080831408776
  0
LINE
  8
0
 62
50
  6
CONTINUOUS
 10
-4.3205693278435175
 20
0.86605080831408776
 11
-4.3047140033310978
 21
0.86479069929750951
  0
LINE
  8
0
 62
50
  6
CONTINUOUS
 10
-4.3047140033310978
 20
0.86479069931108377
 11
-4.2963444262724195
 21
0.86605080831408776
  0
LINE
  8
0
 62
50
  6
CONTINUOUS
 10
-4.296344418472164
 20
0.86605080831408776
 11
-1.477327636955206
 21
0.86605080831408776
  0
LINE
  8
0
 62
50
  6
CONTINUOUS
 10
-1.4773276291548709
 20
0.86605080831408776
 11
-1.4689580520962198
 21
0.86479069931108377
  0
LINE
  8
0
 62
50
  6
CONTINUOUS
 10
-1.4689580520962198
 20
0.86479069929748331
 11
-1.4531027275835893
 21
0.86605080831408776
  0
LINE
  8
0
 62
50
  6
CONTINUOUS
 10
-1.4531027133503649
 20
0.86605080831408776
 11
-1.3978159282798335
 21
0.86605080831408776
  0
LINE
  8
0
 62
50
  6
CONTINUOUS
 10
-1.3978159172851348
 20
0.86605080831408776
 11
-1.3835342855760859
 21
0.86453852066453507
  0
LINE
  8
0
 62
50
  6
CONTINUOUS
 10
-1.3835342855760859
 20
0.86453852062066194
 11
-1.3732754796592417
 21
0.86605080831408776
  0
LINE
  8
0
 62
50
  6
CONTINUOUS
 10
-1.3732754722103644
 20
0.86605080831408776
 11
-1.3196953142626544
 21
0.86605080831408776
  0
LINE
  8
0
 62
50
  6
CONTINUOUS
 10
-1.3196952950570353
 20
0.86605080831408776
 11
-1.306903659756864
 21
0.86529489988183417
  0
LINE
  8
0
 62
50
  6
CONTINUOUS
 10
-1.306903659756864
 20
0.86529489981580121
 11
-1.3038372638531475
 21
0.86605080831408776
  0
LINE
  8
0
 62
50
  6
CONTINUOUS
 10
-1.3038372595802552
 20
0.86605080831408776
 11
-1.245975154464009
 21
0.86605080831408776
  0
LINE
  8
0
 62
50
  6
CONTINUOUS
 10
-1.2459751491878894
 20
0.86605080831408776
 11
-1.2429087541988662
 21
0.86529489996737496
  0
LINE
  8
0
 62
50
  6
CONTINUOUS
 10
-1.2429087541988662
 20
0.86529489982735375
 11
-1.2348712364067911
 21
0.86605080831408776
  0
LINE
  8
0
 62
50
  6
CONTINUOUS
 10
-1.2348712249608633
 20
0.86605080831408776
 11
-1.201204580262994
 21
0.86605080831408776
  0
LINE
  8
0
 62
50
  6
CONTINUOUS
 10
-1.2012045747593434
 20
0.86605080831408776
 11
-1.1947585406861008
 21
0.86453852077010895
  0
LINE
  8
0
 62
50
  6
CONTINUOUS
 10
-1.1947585406861008
 20
0.86453852056229574
 11
-1.1897611812334321
 21
0.86605080831408776
  0
LINE
  8
0
 62
50
  6
CONTINUOUS
 10
-1.1897611779906527
 20
0.86605080831408776
 11
-1.1704154953079735
 21
0.86605080831408776
  0
LINE
  8
0
 62
50
  6
CONTINUOUS
 10
-1.1704154953079735
 20
0.86605080831408776
 11
-1.164867471981945
 21
0.86479069803884134
  0
LINE
  8
0
 62
50
  6
CONTINUOUS
 10
-1.164867471981945
 20
0.86479069942500686
 11
-1.1639244471948891
 21
0.86605080831408776
  0
LINE
  8
0
 62
50
  6
CONTINUOUS
 10
-1.1639244461575295
 20
0.86605080831408776
 11
-1.1547344110854503
 21
0.86605080831408776
  0
LINE
  8
0
 62
50
  6
CONTINUOUS
 10
-1.1547344110854503
 20
0.86605080831408776
 11
-0.86605080831408776
 21
0.57736720554272514
  0
LINE
  8
0
 62
50
  6
CONTINUOUS
 10
-0.86605080831408776
 20
0.57736720554272514
 11
-4.9076212471131635
 21
0.57736720554272514
  0
ENDBLK
  0
BLOCK
  8
0
 62
5
  6
DASHDOT
  2
TELL_3
 70
0
 10
-2.8868360277136258
 20
5.3117782909930717
  0
LINE
  8
0
 62
50
  6
CONTINUOUS
 10
-2.8868360277136258
 20
5.9451302029216393
 11
-3.4353348729792277
 21
5.6284542469573617
  0
LINE
  8
0
 62
50
  6
CONTINUOUS
 10
-3.4353348729792277
 20
5.6284542469573617
 11
-3.4353348729792277
 21
4.9951023350287809
  0
LINE
  8
0
 62
50
  6
CONTINUOUS
 10
-3.4353348729792277
 20
4.9951023350287809
 11
-2.8868360277136258
 21
4.6784263790645033
  0
LINE
  8
0
 62
50
  6
CONTINUOUS
 10
-2.8868360277136258
 20
4.6784263790645033
 11
-2.3383371824480368
 21
4.9951023350287809
  0
LINE
  8
0
 62
50
  6
CONTINUOUS
 10
-2.3383371824480368
 20
4.9951023350287809
 11
-2.3383371824480368
 21
5.6284542469573617
  0
LINE
  8
0
 62
50
  6
CONTINUOUS
 10
-2.3383371824480368
 20
5.6284542469573617
 11
-2.8868360277136258
 21
5.9451302029216393
  0
CIRCLE
  8
0
 62
50
  6
CONTINUOUS
 10
-2.8868360277136258
 20
5.3117782909930717
 40
0.5484988452655889
  0
LINE
  8
0
 62
5
  6
DASHDOT
 10
-2.8868360277136258
 20
4.5629529379559584
 11
-2.8868360277136258
 21
6.0606036440301843
  0
LINE
  8
0
 62
5
  6
DASHDOT
 10
-3.6356613807507521
 20
5.3117782909930717
 11
-2.1380106746765257
 21
5.3117782909930717
  0
ENDBLK
  0
BLOCK
  8
249
 62
5
  6
DASHDOT
  2
TELL_4
 70
0
 10
-2.8868360277136782
 20
2.1362586605081093
  0
CIRCLE
  8
249
 62
50
  6
CONTINUOUS
 10
-2.8868360277136782
 20
2.1362586605081093
 40
0.28443995381062354
  0
ARC
  8
249
 62
5
  6
CONTINUOUS
 10
-2.8868360277136782
 20
2.1362586605081093
 40
0.3464203233256351
 50
175.00000000000003
 51
90
  0
LINE
  8
249
 62
5
  6
DASHDOT
 10
-2.8868360277136782
 20
2.5981524249422896
 11
-2.8868360277136782
 21
1.6743648960739292
  0
LINE
  8
249
 62
5
  6
DASHDOT
 10
-3.3487297921478585
 20
2.1362586605081093
 11
-2.4249422632794984
 21
2.1362586605081093
  0
ENDBLK
  0
BLOCK
  8
0
 62
50
  6
CONTINUOUS
  2
TELL_1
 70
0
 10
-2.8868360277193994
 20
0
  0
INSERT
  8
0
 62
140
  6
CONTINUOUS
  2
TELL_2
 10
-2.8868360277136258
 20
0.72170900692840645
 41
1.0
 42
1.0
 50
0.0
  0
LINE
  8
0
 62
50
  6
CONTINUOUS
 10
-4.9076212471131635
 20
0.57736720554272514
 11
-4.6189376443418011
 21
0.86605080831408776
  0
LINE
  8
0
 62
50
  6
CONTINUOUS
 10
-1.1639244461575295
 20
0.86605080831408776
 11
-1.1547344110854503
 21
0.86605080831408776
  0
LINE
  8
0
 62
50
  6
CONTINUOUS
 10
-1.1547344110854503
 20
0.86605080831408776
 11
-0.86605080831408776
 21
0.57736720554272514
  0
LINE
  8
0
 62
50
  6
CONTINUOUS
 10
-1.1547344110854503
 20
6.9284064665127021
 11
-1.1547344110854503
 21
6.4665127020785214
  0
LINE
  8
0
 62
50
  6
CONTINUOUS
 10
-1.1639244471948891
 20
0.86605080831408776
 11
-1.164867471981945
 21
0.86479069942500686
  0
LINE
  8
0
 62
50
  6
CONTINUOUS
 10
-1.1547344110854503
 20
4.1570438799076213
 11
-1.1547344110854503
 21
0.86605080831408776
  0
LINE
  8
0
 62
50
  6
CONTINUOUS
 10
-4.6189376443418011
 20
0.86605080831408776
 11
-4.6189376443418011
 21
4.1570438799076213
  0
LINE
  8
0
 62
50
  6
CONTINUOUS
 10
-4.6088045834453064
 20
0.86479069942498055
 11
-4.6097476082324151
 21
0.86605080831408776
  0
LINE
  8
0
 62
50
  6
CONTINUOUS
 10
-4.6189376443418011
 20
6.4665127020785214
 11
-4.6189376443418011
 21
6.9284064665127021
  0
LINE
  8
0
 62
50
  6
CONTINUOUS
 10
-1.1897611779906527
 20
0.86605080831408776
 11
-1.1704154953079735
 21
0.86605080831408776
  0
LINE
  8
0
 62
50
  6
CONTINUOUS
 10
-1.1704154953079735
 20
0.86605080831408776
 11
-1.164867471981945
 21
0.86479069803884134
  0
LINE
  8
0
 62
50
  6
CONTINUOUS
 10
-4.6189376443418011
 20
0.86605080831408776
 11
-4.6097476092697747
 21
0.86605080831408776
  0
LINE
  8
0
 62
50
  6
CONTINUOUS
 10
-4.6032565601191733
 20
0.86605080831408776
 11
-4.5839108774366251
 21
0.86605080831408776
  0
LINE
  8
0
 62
50
  6
CONTINUOUS
 10
-4.6088045834453064
 20
0.86479069803878883
 11
-4.6032565601191733
 21
0.86605080831408776
  0
LINE
  8
0
 62
50
  6
CONTINUOUS
 10
-4.5789135147411768
 20
0.86453852056226943
 11
-4.5839108741938457
 21
0.86605080831408776
  0
LINE
  8
0
 62
50
  6
CONTINUOUS
 10
-1.1897611812334321
 20
0.86605080831408776
 11
-1.1947585406861008
 21
0.86453852056229574
  0
LINE
  8
0
 62
50
  6
CONTINUOUS
 10
-4.5307633012284381
 20
0.86529489982735375
 11
-4.5388008190204605
 21
0.86605080831408776
  0
LINE
  8
0
 62
50
  6
CONTINUOUS
 10
-4.572467480667882
 20
0.86605080831408776
 11
-4.5789135147411768
 21
0.86453852077010895
  0
LINE
  8
0
 62
50
  6
CONTINUOUS
 10
-1.2348712364067911
 20
0.86605080831408776
 11
-1.2429087541988662
 21
0.86529489982735375
  0
LINE
  8
0
 62
50
  6
CONTINUOUS
 10
-1.1947585406861008
 20
0.86453852077010895
 11
-1.2012045747593434
 21
0.86605080831408776
  0
LINE
  8
0
 62
50
  6
CONTINUOUS
 10
-1.2348712249608633
 20
0.86605080831408776
 11
-1.201204580262994
 21
0.86605080831408776
  0
LINE
  8
0
 62
50
  6
CONTINUOUS
 10
-4.6189376443418011
 20
6.9284064665127021
 11
-1.1547344110854503
 21
6.9284064665127021
  0
LINE
  8
0
 62
50
  6
CONTINUOUS
 10
-1.3038372638531475
 20
0.86605080831408776
 11
-1.306903659756864
 21
0.86529489981580121
  0
LINE
  8
0
 62
50
  6
CONTINUOUS
 10
-1.2429087541988662
 20
0.86529489996737496
 11
-1.2459751491878894
 21
0.86605080831408776
  0
LINE
  8
0
 62
50
  6
CONTINUOUS
 10
-4.4667683956703872
 20
0.86529489981580121
 11
-4.469834791574157
 21
0.86605080831408776
  0
LINE
  8
0
 62
50
  6
CONTINUOUS
 10
-4.5276969062394672
 20
0.86605080831408776
 11
-4.5307633012284381
 21
0.86529489996737496
  0
LINE
  8
0
 62
50
  6
CONTINUOUS
 10
-4.5724674751643102
 20
0.86605080831408776
 11
-4.5388008304663616
 21
0.86605080831408776
  0
LINE
  8
0
 62
50
  6
CONTINUOUS
 10
-4.5276969009632948
 20
0.86605080831408776
 11
-4.4698347958470492
 21
0.86605080831408776
  0
LINE
  8
0
 62
50
  6
CONTINUOUS
 10
-4.3901377698512185
 20
0.86453852062066194
 11
-4.4003965757680623
 21
0.86605080831408776
  0
LINE
  8
0
 62
50
  6
CONTINUOUS
 10
-4.4539767603703213
 20
0.86605080831408776
 11
-4.4667683956703872
 21
0.86529489988183417
  0
LINE
  8
0
 62
50
  6
CONTINUOUS
 10
-1.3732754796592417
 20
0.86605080831408776
 11
-1.3835342855760859
 21
0.86453852062066194
  0
LINE
  8
0
 62
50
  6
CONTINUOUS
 10
-1.306903659756864
 20
0.86529489988183417
 11
-1.3196952950570353
 21
0.86605080831408776
  0
LINE
  8
0
 62
50
  6
CONTINUOUS
 10
-1.3038372595802552
 20
0.86605080831408776
 11
-1.245975154464009
 21
0.86605080831408776
  0
LINE
  8
0
 62
50
  6
CONTINUOUS
 10
-4.3047140033310978
 20
0.86479069929750951
 11
-4.3205693278435175
 21
0.86605080831408776
  0
LINE
  8
0
 62
50
  6
CONTINUOUS
 10
-4.3758561381422743
 20
0.86605080831408776
 11
-4.3901377698512185
 21
0.86453852066453507
  0
LINE
  8
0
 62
50
  6
CONTINUOUS
 10
-1.4531027275835893
 20
0.86605080831408776
 11
-1.4689580520962198
 21
0.86479069929748331
  0
LINE
  8
0
 62
50
  6
CONTINUOUS
 10
-1.3835342855760859
 20
0.86453852066453507
 11
-1.3978159172851348
 21
0.86605080831408776
  0
LINE
  8
0
 62
50
  6
CONTINUOUS
 10
-4.2963444262724195
 20
0.86605080831408776
 11
-4.3047140033310978
 21
0.86479069931108377
  0
LINE
  8
0
 62
50
  6
CONTINUOUS
 10
-1.4689580520962198
 20
0.86479069931108377
 11
-1.4773276291548709
 21
0.86605080831408776
  0
LINE
  8
0
 62
5
  6
CONTINUOUS
 10
-1.5588914549697164
 20
6.9284064665127021
 11
-1.5588914549697164
 21
6.4665127020785214
  0
LINE
  8
0
 62
5
  6
CONTINUOUS
 10
-4.214780600466252
 20
0.86605080831408776
 11
-4.214780600466252
 21
4.1570438799076213
  0
LINE
  8
0
 62
5
  6
CONTINUOUS
 10
-4.214780600466252
 20
6.4665127020785214
 11
-4.214780600466252
 21
6.9284064665127021
  0
LINE
  8
0
 62
5
  6
CONTINUOUS
 10
-1.5588914549697164
 20
4.1570438799076213
 11
-1.5588914549697164
 21
0.86605080831408776
  0
LINE
  8
0
 62
50
  6
CONTINUOUS
 10
-1.3732754722103644
 20
0.86605080831408776
 11
-1.3196953142626544
 21
0.86605080831408776
  0
LINE
  8
0
 62
50
  6
CONTINUOUS
 10
-4.4539767411646238
 20
0.86605080831408776
 11
-4.4003965832169394
 21
0.86605080831408776
  0
LINE
  8
0
 62
50
  6
CONTINUOUS
 10
-4.3758561271474186
 20
0.86605080831408776
 11
-4.3205693420767162
 21
0.86605080831408776
  0
LINE
  8
0
 62
50
  6
CONTINUOUS
 10
-1.4531027133503649
 20
0.86605080831408776
 11
-1.3978159282798335
 21
0.86605080831408776
  0
LINE
  8
0
 62
50
  6
CONTINUOUS
 10
-4.296344418472164
 20
0.86605080831408776
 11
-1.477327636955206
 21
0.86605080831408776
  0
LINE
  8
0
 62
50
  6
CONTINUOUS
 10
-5.2540415704387993
 20
6.4665127020785214
 11
-0.51963048498845266
 21
6.4665127020785214
  0
LINE
  8
0
 62
50
  6
CONTINUOUS
 10
-5.2540415704387993
 20
4.1570438799076213
 11
-5.2540415704387993
 21
6.4665127020785214
  0
LINE
  8
0
 62
50
  6
CONTINUOUS
 10
-0.51963048498845266
 20
6.4665127020785214
 11
-0.51963048498845266
 21
4.1570438799076213
  0
LINE
  8
0
 62
50
  6
CONTINUOUS
 10
-5.2540415704387993
 20
4.1570438799076213
 11
-0.51963048498845266
 21
4.1570438799076213
  0
LINE
  8
0
 62
5
  6
CONTINUOUS
 10
-4.6766743649004319
 20
4.2725173210161662
 11
-4.6766743649004319
 21
6.3510392609699764
  0
LINE
  8
0
 62
5
  6
CONTINUOUS
 10
-1.0969976905355363
 20
6.3510392609699764
 11
-1.0969976905355363
 21
4.2725173210161662
  0
LINE
  8
0
 62
50
  6
CONTINUOUS
 10
-5.7736720554272516
 20
0
 11
-5.7736720554272516
 21
0.57736720554272514
  0
LINE
  8
0
 62
50
  6
CONTINUOUS
 10
-5.7736720554272516
 20
0.57736720554272514
 11
-4.9076212471131635
 21
0.57736720554272514
  0
LINE
  8
0
 62
50
  6
CONTINUOUS
 10
-4.9076212471131635
 20
0.57736720554272514
 11
-0.86605080831408776
 21
0.57736720554272514
  0
LINE
  8
0
 62
50
  6
CONTINUOUS
 10
-0.86605080831408776
 20
0.57736720554272514
 11
0
 21
0.57736720554272514
  0
LINE
  8
0
 62
50
  6
CONTINUOUS
 10
0
 20
0.57736720554272514
 11
0
 21
0
  0
LINE
  8
0
 62
50
  6
CONTINUOUS
 10
0
 20
0
 11
-5.7736720554272516
 21
0
  0
INSERT
  8
0
 62
5
  6
DASHDOT
  2
TELL_3
 10
-2.8868360277136258
 20
5.3117782909930717
 41
1.0
 42
1.0
 50
0.0
  0
LINE
  8
0
 62
5
  6
DASHDOT
 10
-2.8868360277136258
 20
-0.17321016166281755
 11
-2.8868360277136258
 21
1.0392609699769053
  0
INSERT
  8
249
 62
5
  6
DASHDOT
  2
TELL_4
 10
-2.8868360277136782
 20
2.1362586605081093
 41
1.0
 42
1.0
 50
0.0
  0
ENDBLK
  0
BLOCK
  8
0
 62
5
  6
DASHDOT
  2
TELL_6
 70
0
 10
-2.8868360277193994
 20
-15.155889145496536
  0
LINE
  8
0
 62
50
  6
CONTINUOUS
 10
-2.2546189376443522
 20
-15.184757505773671
 11
-2.2546189376443513
 21
-15.575432395249408
  0
ARC
  8
0
 62
50
  6
CONTINUOUS
 10
-2.4126732101616839
 20
-15.301674364896078
 40
0.31610854503464197
 50
227.88538956950413
 51
300
  0
ARC
  8
0
 62
50
  6
CONTINUOUS
 10
-2.8868360277136258
 20
-15.155889145496536
 40
0.46189376443418012
 50
235.41628176499029
 51
304.58371823500971
  0
ARC
  8
0
 62
50
  6
CONTINUOUS
 10
-3.3609988452656072
 20
-15.301674364896078
 40
0.31610854503464197
 50
240
 51
312.11461043049587
  0
LINE
  8
0
 62
50
  6
CONTINUOUS
 10
-3.5190531177829381
 20
-15.575432395249408
 11
-3.5190531177829385
 21
-15.184757505773671
  0
LINE
  8
0
 62
50
  6
CONTINUOUS
 10
-2.6246605953175703
 20
-15.536165219252315
 11
-2.6246605953199866
 21
-15.184757505773671
  0
LINE
  8
0
 62
50
  6
CONTINUOUS
 10
-3.149011460109719
 20
-15.536165219252315
 11
-3.1490114601072783
 21
-15.184757505773671
  0
LINE
  8
0
 62
50
  6
CONTINUOUS
 10
-2.412673210161683
 20
-15.617782909930716
 11
-3.3609988452656063
 21
-15.617782909930716
  0
LINE
  8
0
 62
5
  6
CONTINUOUS
 10
-2.5404157043879905
 20
-15.155889145496536
 11
-2.540415704387994
 21
-12.90993071593533
  0
LINE
  8
0
 62
5
  6
CONTINUOUS
 10
-2.540415704387994
 20
-12.90993071593533
 11
-2.6039260969977147
 21
-12.846420323325635
  0
LINE
  8
0
 62
5
  6
CONTINUOUS
 10
-2.6039260969977147
 20
-12.846420323325635
 11
-3.1697459584295826
 21
-12.846420323325635
  0
LINE
  8
0
 62
5
  6
CONTINUOUS
 10
-3.1697459584295826
 20
-12.846420323325635
 11
-3.2332563510392771
 21
-12.90993071593533
  0
LINE
  8
0
 62
5
  6
CONTINUOUS
 10
-3.2332563510392771
 20
-12.90993071593533
 11
-3.233256351039274
 21
-15.155889145496536
  0
LINE
  8
0
 62
5
  6
CONTINUOUS
 10
-2.540415704387994
 20
-12.90993071593533
 11
-3.2332563510392771
 21
-12.90993071593533
  0
LINE
  8
0
 62
50
  6
CONTINUOUS
 10
-3.5190531177829385
 20
-15.184757505773671
 11
-2.2546189376443522
 21
-15.184757505773671
  0
LINE
  8
0
 62
50
  6
CONTINUOUS
 10
-2.3383371824480368
 20
-15.184757505773671
 11
-2.3383371824480368
 21
-15.155889145496536
  0
LINE
  8
0
 62
50
  6
CONTINUOUS
 10
-3.4353348729792277
 20
-15.155889145496536
 11
-3.4353348729792277
 21
-15.184757505773671
  0
LINE
  8
0
 62
5
  6
CONTINUOUS
 10
-2.6039260969977147
 20
-12.846420323325635
 11
-2.6039260969977116
 21
-15.155889145496536
  0
LINE
  8
0
 62
5
  6
CONTINUOUS
 10
-3.1697459584295826
 20
-12.846420323325635
 11
-3.1697459584295795
 21
-15.155889145496536
  0
ENDBLK
  0
BLOCK
  8
0
 62
5
  6
DASHDOT
  2
TELL_7
 70
0
 10
-2.8868360277193994
 20
-5.0519630484988447
  0
LINE
  8
0
 62
50
  6
CONTINUOUS
 10
-2.2546189376443522
 20
-5.0230946882217076
 11
-2.2546189376443531
 21
-4.6324197987459712
  0
ARC
  8
0
 62
50
  6
CONTINUOUS
 10
-2.4126732101616839
 20
-4.9061778290993017
 40
0.31610854503464197
 50
60
 51
132.11461043049587
  0
ARC
  8
0
 62
50
  6
CONTINUOUS
 10
-2.8868360277136258
 20
-5.0519630484988447
 40
0.46189376443418012
 50
55.416281764990288
 51
124.58371823500971
  0
ARC
  8
0
 62
50
  6
CONTINUOUS
 10
-3.3609988452656072
 20
-4.9061778290993017
 40
0.31610854503464197
 50
47.885389569504127
 51
120
  0
LINE
  8
0
 62
50
  6
CONTINUOUS
 10
-3.5190531177829394
 20
-4.6324197987459748
 11
-3.5190531177829385
 21
-5.0230946882217102
  0
LINE
  8
0
 62
50
  6
CONTINUOUS
 10
-2.6246605953175717
 20
-4.671686974743066
 11
-2.6246605953199866
 21
-5.0230946882217085
  0
LINE
  8
0
 62
50
  6
CONTINUOUS
 10
-3.1490114601097208
 20
-4.671686974743066
 11
-3.1490114601072783
 21
-5.0230946882217085
  0
LINE
  8
0
 62
50
  6
CONTINUOUS
 10
-2.4126732101616843
 20
-4.5900692840646649
 11
-3.3609988452656081
 21
-4.5900692840646649
  0
LINE
  8
0
 62
5
  6
CONTINUOUS
 10
-2.5404157043879905
 20
-5.0519630484988447
 11
-2.5404157043879874
 21
-7.2979214780600508
  0
LINE
  8
0
 62
5
  6
CONTINUOUS
 10
-2.5404157043879874
 20
-7.2979214780600508
 11
-2.6039260969977081
 21
-7.3614318706697448
  0
LINE
  8
0
 62
5
  6
CONTINUOUS
 10
-2.6039260969977081
 20
-7.3614318706697448
 11
-3.169745958429576
 21
-7.3614318706697466
  0
LINE
  8
0
 62
5
  6
CONTINUOUS
 10
-3.169745958429576
 20
-7.3614318706697466
 11
-3.2332563510392709
 21
-7.2979214780600516
  0
LINE
  8
0
 62
5
  6
CONTINUOUS
 10
-3.2332563510392709
 20
-7.2979214780600516
 11
-3.233256351039274
 21
-5.0519630484988447
  0
LINE
  8
0
 62
5
  6
CONTINUOUS
 10
-2.5404157043879874
 20
-7.2979214780600508
 11
-3.2332563510392709
 21
-7.2979214780600516
  0
LINE
  8
0
 62
50
  6
CONTINUOUS
 10
-3.5190531177829385
 20
-5.0230946882217102
 11
-2.2546189376443522
 21
-5.0230946882217076
  0
LINE
  8
0
 62
50
  6
CONTINUOUS
 10
-2.3383371824480368
 20
-5.0230946882217076
 11
-2.3383371824480368
 21
-5.0519630484988438
  0
LINE
  8
0
 62
50
  6
CONTINUOUS
 10
-3.4353348729792277
 20
-5.0519630484988465
 11
-3.4353348729792277
 21
-5.0230946882217102
  0
LINE
  8
0
 62
5
  6
CONTINUOUS
 10
-2.6039260969977081
 20
-7.3614318706697448
 11
-2.6039260969977116
 21
-5.0519630484988447
  0
LINE
  8
0
 62
5
  6
CONTINUOUS
 10
-3.169745958429576
 20
-7.3614318706697466
 11
-3.1697459584295795
 21
-5.0519630484988447
  0
ENDBLK
  0
BLOCK
  8
0
 62
5
  6
DASHDOT
  2
TELL_5
 70
0
 10
-2.8868360274307157
 20
-10.103926096997689
  0
LINE
  8
0
 62
50
  6
CONTINUOUS
 10
-5.7736720554229191
 20
-2.3094688221709005
 11
4.3584330396739629e-012
 21
-2.3094688221709005
  0
LINE
  8
0
 62
50
  6
CONTINUOUS
 10
4.3584330396739629e-012
 20
-2.3094688221709005
 11
4.3584330396739629e-012
 21
-17.89838337182448
  0
LINE
  8
0
 62
50
  6
CONTINUOUS
 10
4.3584330396739629e-012
 20
-17.89838337182448
 11
-5.7736720554229191
 21
-17.89838337182448
  0
LINE
  8
0
 62
50
  6
CONTINUOUS
 10
-5.7736720554229191
 20
-17.89838337182448
 11
-5.7736720554229191
 21
-2.3094688221709005
  0
LINE
  8
0
 62
50
  6
CONTINUOUS
 10
-2.4826789838297012
 20
-4.0704387990762383
 11
-2.4826789838297012
 21
-3.1466512702078782
  0
LINE
  8
0
 62
50
  6
CONTINUOUS
 10
-3.2909930715895164
 20
-3.1466512702078782
 11
-3.2909930715895164
 21
-4.0704387990762383
  0
LINE
  8
0
 62
50
  6
CONTINUOUS
 10
-3.2909930715952926
 20
-16.137413394919168
 11
-3.2909930715952926
 21
-17.061200923787528
  0
LINE
  8
0
 62
50
  6
CONTINUOUS
 10
-2.4826789838354775
 20
-17.061200923787528
 11
-2.4826789838354775
 21
-16.137413394919168
  0
LINE
  8
0
 62
50
  6
CONTINUOUS
 10
-1.09699769052976
 20
-15.155889145496536
 11
-4.6766743648946694
 21
-15.155889145496536
  0
LINE
  8
0
 62
50
  6
CONTINUOUS
 10
-5.2540415704373942
 20
-14.578521939953809
 11
-5.254041570438825
 21
-13.827944572748267
  0
LINE
  8
0
 62
50
  6
CONTINUOUS
 10
-5.254041570438825
 20
-13.827944572748267
 11
-4.9653579676674626
 21
-13.827944572748267
  0
LINE
  8
0
 62
50
  6
CONTINUOUS
 10
-4.9653579676674626
 20
-13.827944572748267
 11
-4.9653579676660318
 21
-14.578521939953809
  0
LINE
  8
0
 62
50
  6
CONTINUOUS
 10
-4.6766743648946694
 20
-14.867205542725173
 11
-1.09699769052976
 21
-14.867205542725173
  0
LINE
  8
0
 62
50
  6
CONTINUOUS
 10
-0.80831408775839741
 20
-14.578521939953809
 11
-0.80831408775981517
 21
-13.827944572748267
  0
LINE
  8
0
 62
50
  6
CONTINUOUS
 10
-0.80831408775981517
 20
-13.827944572748267
 11
-0.51963048498845266
 21
-13.827944572748267
  0
LINE
  8
0
 62
50
  6
CONTINUOUS
 10
-0.51963048498845266
 20
-13.827944572748267
 11
-0.51963048498703479
 21
-14.578521939953809
  0
LINE
  8
0
 62
50
  6
CONTINUOUS
 10
-1.1547344110840325
 20
-10.941108545034641
 11
-1.1547344110854503
 21
-13.596997690531177
  0
LINE
  8
0
 62
50
  6
CONTINUOUS
 10
-1.5588914549639401
 20
-14.001154734411084
 11
-4.2147806004604886
 21
-14.001154734411084
  0
LINE
  8
0
 62
50
  6
CONTINUOUS
 10
-4.6189376443403969
 20
-13.596997690531177
 11
-4.6189376443403969
 21
-10.941108545034641
  0
LINE
  8
0
 62
50
  6
CONTINUOUS
 10
-4.2147806004604886
 20
-10.536951501154734
 11
-1.5588914549639401
 21
-10.536951501154734
  0
LINE
  8
0
 62
50
  6
CONTINUOUS
 10
-4.3879907621233061
 20
-10.941108545034641
 11
-4.3879907621247378
 21
-13.596997690531177
  0
LINE
  8
0
 62
50
  6
CONTINUOUS
 10
-4.2147806004604886
 20
-13.770207852193995
 11
-1.5588914549639401
 21
-13.770207852193995
  0
LINE
  8
0
 62
50
  6
CONTINUOUS
 10
-1.3856812933011227
 20
-13.596997690531177
 11
-1.3856812933011227
 21
-10.941108545034641
  0
LINE
  8
0
 62
50
  6
CONTINUOUS
 10
-1.5588914549639401
 20
-10.767898383371824
 11
-4.2147806004604886
 21
-10.767898383371824
  0
ARC
  8
0
 62
50
  6
CONTINUOUS
 10
-2.8868360277096086
 20
-4.0704387990762383
 40
0.40415704387990403
 50
180
 51
0
  0
ARC
  8
0
 62
50
  6
CONTINUOUS
 10
-2.8868360277096086
 20
-3.1466512702078653
 40
0.40415704387990259
 50
0
 51
180
  0
ARC
  8
0
 62
50
  6
CONTINUOUS
 10
-2.8868360277153848
 20
-17.061200923787528
 40
0.40415704387990259
 50
180
 51
0
  0
ARC
  8
0
 62
50
  6
CONTINUOUS
 10
-2.8868360277153848
 20
-16.137413394919168
 40
0.40415704387991042
 50
0
 51
180
  0
ARC
  8
0
 62
50
  6
CONTINUOUS
 10
-4.2147806004619071
 20
-13.596997690531177
 40
0.17321016166281755
 50
180
 51
270
  0
ARC
  8
0
 62
50
  6
CONTINUOUS
 10
-1.5588914549653579
 20
-13.596997690531177
 40
0.17321016166281755
 50
270
 51
0
  0
ARC
  8
0
 62
50
  6
CONTINUOUS
 10
-4.2147806004619071
 20
-10.941108545034641
 40
0.17321016166281755
 50
90
 51
180
  0
ARC
  8
0
 62
50
  6
CONTINUOUS
 10
-1.5588914549639401
 20
-10.941108545034641
 40
0.17321016166281755
 50
0
 51
90
  0
ARC
  8
0
 62
50
  6
CONTINUOUS
 10
-4.2147806004619071
 20
-13.596997690531177
 40
0.40415704387990758
 50
180
 51
270
  0
ARC
  8
0
 62
50
  6
CONTINUOUS
 10
-1.5588914549653579
 20
-13.596997690531177
 40
0.40415704387990758
 50
270
 51
0
  0
ARC
  8
0
 62
50
  6
CONTINUOUS
 10
-4.2147806004604886
 20
-10.941108545034641
 40
0.40415704387990758
 50
90
 51
180
  0
ARC
  8
0
 62
50
  6
CONTINUOUS
 10
-1.5588914549653579
 20
-10.941108545034641
 40
0.40415704387990758
 50
0
 51
90
  0
ARC
  8
0
 62
50
  6
CONTINUOUS
 10
-4.6766743648961002
 20
-14.578521939953809
 40
0.28868360277136257
 50
180
 51
270
  0
ARC
  8
0
 62
50
  6
CONTINUOUS
 10
-1.0969976905311778
 20
-14.578521939953809
 40
0.28868360277136257
 50
270
 51
0
  0
ARC
  8
0
 62
50
  6
CONTINUOUS
 10
-4.6766743648961002
 20
-14.578521939953809
 40
0.57736720554272514
 50
180
 51
270
  0
ARC
  8
0
 62
50
  6
CONTINUOUS
 10
-1.0969976905311778
 20
-14.578521939953809
 40
0.57736720554272514
 50
270
 51
0
  0
INSERT
  8
0
 62
5
  6
DASHDOT
  2
TELL_6
 10
-2.8868360277193994
 20
-15.155889145496536
 41
1.0
 42
1.0
 50
0.0
  0
LINE
  8
0
 62
5
  6
DASHDOT
 10
-3.4642032332581101
 20
-16.599307159353348
 11
-2.3094688221726596
 21
-16.599307159353348
  0
LINE
  8
0
 62
5
  6
DASHDOT
 10
-3.4642032332523338
 20
-3.6085450346420584
 11
-2.3094688221668833
 21
-3.6085450346420584
  0
LINE
  8
0
 62
5
  6
DASHDOT
 10
-2.8868360277092675
 20
-18.071593533487299
 11
-2.8868360277092675
 21
-2.1362586605080831
  0
LINE
  8
0
 62
50
  6
CONTINUOUS
 10
-1.09699769052976
 20
-5.0519630484988447
 11
-4.6766743648946694
 21
-5.0519630484988447
  0
LINE
  8
0
 62
50
  6
CONTINUOUS
 10
-5.2540415704373942
 20
-5.6293302540415704
 11
-5.254041570438825
 21
-6.3799076212471126
  0
LINE
  8
0
 62
50
  6
CONTINUOUS
 10
-5.254041570438825
 20
-6.3799076212471126
 11
-4.9653579676674626
 21
-6.3799076212471126
  0
LINE
  8
0
 62
50
  6
CONTINUOUS
 10
-4.9653579676674626
 20
-6.3799076212471126
 11
-4.9653579676660318
 21
-5.6293302540415704
  0
LINE
  8
0
 62
50
  6
CONTINUOUS
 10
-4.6766743648946694
 20
-5.340646651270208
 11
-1.09699769052976
 21
-5.340646651270208
  0
LINE
  8
0
 62
50
  6
CONTINUOUS
 10
-0.80831408775839741
 20
-5.6293302540415704
 11
-0.80831408775981517
 21
-6.3799076212471126
  0
LINE
  8
0
 62
50
  6
CONTINUOUS
 10
-0.80831408775981517
 20
-6.3799076212471126
 11
-0.51963048498845266
 21
-6.3799076212471126
  0
LINE
  8
0
 62
50
  6
CONTINUOUS
 10
-0.51963048498845266
 20
-6.3799076212471126
 11
-0.51963048498703479
 21
-5.6293302540415704
  0
LINE
  8
0
 62
50
  6
CONTINUOUS
 10
-1.1547344110840325
 20
-9.2667436489607393
 11
-1.1547344110854503
 21
-6.6108545034642026
  0
LINE
  8
0
 62
50
  6
CONTINUOUS
 10
-1.5588914549639401
 20
-6.2066974595842952
 11
-4.2147806004604886
 21
-6.2066974595842952
  0
LINE
  8
0
 62
50
  6
CONTINUOUS
 10
-4.6189376443403969
 20
-6.6108545034642026
 11
-4.6189376443403969
 21
-9.2667436489607393
  0
LINE
  8
0
 62
50
  6
CONTINUOUS
 10
-4.2147806004604886
 20
-9.6709006928406467
 11
-1.5588914549639401
 21
-9.6709006928406467
  0
LINE
  8
0
 62
50
  6
CONTINUOUS
 10
-4.3879907621233061
 20
-9.2667436489607393
 11
-4.3879907621247378
 21
-6.6108545034642026
  0
LINE
  8
0
 62
50
  6
CONTINUOUS
 10
-4.2147806004604886
 20
-6.4376443418013851
 11
-1.5588914549639401
 21
-6.4376443418013851
  0
LINE
  8
0
 62
50
  6
CONTINUOUS
 10
-1.3856812933011227
 20
-6.6108545034642026
 11
-1.3856812933011227
 21
-9.2667436489607393
  0
LINE
  8
0
 62
50
  6
CONTINUOUS
 10
-1.5588914549639401
 20
-9.4399538106235568
 11
-4.2147806004604886
 21
-9.4399538106235568
  0
ARC
  8
0
 62
50
  6
CONTINUOUS
 10
-4.2147806004619071
 20
-6.6108545034642026
 40
0.17321016166281755
 50
90
 51
180
  0
ARC
  8
0
 62
50
  6
CONTINUOUS
 10
-1.5588914549653579
 20
-6.6108545034642026
 40
0.17321016166281755
 50
0
 51
90
  0
ARC
  8
0
 62
50
  6
CONTINUOUS
 10
-4.2147806004619071
 20
-9.2667436489607393
 40
0.17321016166281755
 50
180
 51
270
  0
ARC
  8
0
 62
50
  6
CONTINUOUS
 10
-1.5588914549639401
 20
-9.2667436489607393
 40
0.17321016166281755
 50
270
 51
0
  0
ARC
  8
0
 62
50
  6
CONTINUOUS
 10
-4.2147806004619071
 20
-6.6108545034642026
 40
0.40415704387990758
 50
90
 51
180
  0
ARC
  8
0
 62
50
  6
CONTINUOUS
 10
-1.5588914549653579
 20
-6.6108545034642026
 40
0.40415704387990758
 50
0
 51
90
  0
ARC
  8
0
 62
50
  6
CONTINUOUS
 10
-4.2147806004604886
 20
-9.2667436489607393
 40
0.40415704387990758
 50
180
 51
270
  0
ARC
  8
0
 62
50
  6
CONTINUOUS
 10
-1.5588914549653579
 20
-9.2667436489607393
 40
0.40415704387990758
 50
270
 51
0
  0
ARC
  8
0
 62
50
  6
CONTINUOUS
 10
-4.6766743648961002
 20
-5.6293302540415704
 40
0.28868360277136257
 50
90
 51
180
  0
ARC
  8
0
 62
50
  6
CONTINUOUS
 10
-1.0969976905311778
 20
-5.6293302540415704
 40
0.28868360277136257
 50
0
 51
90
  0
ARC
  8
0
 62
50
  6
CONTINUOUS
 10
-4.6766743648961002
 20
-5.6293302540415704
 40
0.57736720554272514
 50
90
 51
180
  0
ARC
  8
0
 62
50
  6
CONTINUOUS
 10
-1.0969976905311778
 20
-5.6293302540415704
 40
0.57736720554272514
 50
0
 51
90
  0
INSERT
  8
0
 62
5
  6
DASHDOT
  2
TELL_7
 10
-2.8868360277193994
 20
-5.0519630484988447
 41
1.0
 42
1.0
 50
0.0
  0
ENDBLK
  0
BLOCK
  8
0
 62
140
  6
CONTINUOUS
  2
TELL_8
 70
0
 10
12.413394919168564
 20
0.72170900692840645
  0
LINE
  8
0
 62
50
  6
CONTINUOUS
 10
14.001154734411058
 20
0.86605080831408776
 11
14.289838337182422
 21
0.57736720554272514
  0
LINE
  8
0
 62
50
  6
CONTINUOUS
 10
14.289838337182422
 20
0.57736720554272514
 11
10.536951501154707
 21
0.57736720554272514
  0
LINE
  8
0
 62
50
  6
CONTINUOUS
 10
10.536951501154707
 20
0.57736720554272514
 11
10.536951501154707
 21
0.86605080831408776
  0
LINE
  8
0
 62
50
  6
CONTINUOUS
 10
10.536951501154707
 20
0.86605080831408776
 11
14.001154734411058
 21
0.86605080831408776
  0
ENDBLK
  0
BLOCK
  8
0
 62
5
  6
DASHDOT
  2
TELL_9
 70
0
 10
15.155889145323323
 20
5.3117782909930717
  0
LINE
  8
0
 62
50
  6
CONTINUOUS
 10
15.184757505773645
 20
5.9439953810623445
 11
15.575432395249393
 21
5.9439953810623711
  0
ARC
  8
0
 62
50
  6
CONTINUOUS
 10
15.301674364896078
 20
5.7859411085450398
 40
0.31610854503464197
 50
317.88538956950413
 51
30
  0
ARC
  8
0
 62
50
  6
CONTINUOUS
 10
15.155889145496509
 20
5.3117782909930717
 40
0.46189376443418012
 50
325.41628176499029
 51
34.583718235009712
  0
ARC
  8
0
 62
50
  6
CONTINUOUS
 10
15.301674364896078
 20
4.8376154734411028
 40
0.31610854503464197
 50
330
 51
42.114610430495873
  0
LINE
  8
0
 62
50
  6
CONTINUOUS
 10
15.575432395249393
 20
4.6795612009237981
 11
15.184757505773645
 21
4.6795612009237981
  0
LINE
  8
0
 62
50
  6
CONTINUOUS
 10
15.536165219252302
 20
5.5739537233891525
 11
15.184757505773645
 21
5.5739537233867109
  0
LINE
  8
0
 62
50
  6
CONTINUOUS
 10
15.536165219252302
 20
5.0496028585970167
 11
15.184757505773645
 21
5.0496028585994326
  0
LINE
  8
0
 62
50
  6
CONTINUOUS
 10
15.617782909930689
 20
5.7859411085450398
 11
15.617782909930689
 21
4.8376154734411028
  0
LINE
  8
0
 62
5
  6
CONTINUOUS
 10
15.155889145496509
 20
5.6581986143187066
 11
12.90993071593533
 21
5.6581986143187013
  0
LINE
  8
0
 62
5
  6
CONTINUOUS
 10
12.90993071593533
 20
5.6581986143187013
 11
12.846420323325608
 21
5.5946882217089806
  0
LINE
  8
0
 62
5
  6
CONTINUOUS
 10
12.846420323325608
 20
5.5946882217089806
 11
12.846420323325608
 21
5.0288683602771256
  0
LINE
  8
0
 62
5
  6
CONTINUOUS
 10
12.846420323325608
 20
5.0288683602771256
 11
12.90993071593533
 21
4.9653579676674315
  0
LINE
  8
0
 62
5
  6
CONTINUOUS
 10
12.90993071593533
 20
4.9653579676674315
 11
15.155889145496509
 21
4.965357967667436
  0
LINE
  8
0
 62
5
  6
CONTINUOUS
 10
12.90993071593533
 20
5.6581986143187013
 11
12.90993071593533
 21
4.9653579676674315
  0
LINE
  8
0
 62
50
  6
CONTINUOUS
 10
15.184757505773645
 20
4.6795612009237981
 11
15.184757505773645
 21
5.9439953810623445
  0
LINE
  8
0
 62
50
  6
CONTINUOUS
 10
15.184757505773645
 20
5.8602771362586603
 11
15.155889145496509
 21
5.8602771362586603
  0
LINE
  8
0
 62
50
  6
CONTINUOUS
 10
15.155889145496509
 20
4.7632794457274823
 11
15.184757505773645
 21
4.7632794457274823
  0
LINE
  8
0
 62
5
  6
CONTINUOUS
 10
12.846420323325608
 20
5.5946882217089806
 11
15.155889145496509
 21
5.5946882217090117
  0
LINE
  8
0
 62
5
  6
CONTINUOUS
 10
12.846420323325608
 20
5.0288683602771256
 11
15.155889145496509
 21
5.0288683602771309
  0
LINE
  8
0
 62
5
  6
DASHDOT
 10
12.730946882217063
 20
5.3117782909930664
 11
15.733256351039234
 21
5.3117782909930717
  0
ENDBLK
  0
BLOCK
  8
0
 62
140
  6
CONTINUOUS
  2
TELL_10
 70
0
 10
7.7944572748267635
 20
0.72170900692840645
  0
LINE
  8
0
 62
50
  6
CONTINUOUS
 10
6.2066974595842694
 20
0.86605080831408277
 11
5.9180138568129061
 21
0.57736720554271936
  0
LINE
  8
0
 62
50
  6
CONTINUOUS
 10
5.9180138568129061
 20
0.57736720554271936
 11
9.67090069284062
 21
0.57736720554273091
  0
LINE
  8
0
 62
50
  6
CONTINUOUS
 10
9.67090069284062
 20
0.57736720554273091
 11
9.67090069284062
 21
0.86605080831409342
  0
LINE
  8
0
 62
50
  6
CONTINUOUS
 10
9.67090069284062
 20
0.86605080831409342
 11
6.2066974595842694
 21
0.86605080831408277
  0
ENDBLK
  0
BLOCK
  8
0
 62
5
  6
DASHDOT
  2
TELL_11
 70
0
 10
5.0519630486778286
 20
5.3117782909930717
  0
LINE
  8
0
 62
50
  6
CONTINUOUS
 10
5.0230946882216809
 20
5.9439953810623445
 11
4.6324197987459321
 21
5.9439953810623445
  0
ARC
  8
0
 62
50
  6
CONTINUOUS
 10
4.9061778290992493
 20
5.7859411085450398
 40
0.31610854503464197
 50
150
 51
222.11461043049587
  0
ARC
  8
0
 62
50
  6
CONTINUOUS
 10
5.0519630484988189
 20
5.3117782909930717
 40
0.46189376443418012
 50
145.41628176499029
 51
214.58371823500966
  0
ARC
  8
0
 62
50
  6
CONTINUOUS
 10
4.9061778290992493
 20
4.8376154734411028
 40
0.31610854503464197
 50
137.88538956950413
 51
210
  0
LINE
  8
0
 62
50
  6
CONTINUOUS
 10
4.6324197987459357
 20
4.6795612009237715
 11
5.0230946882216845
 21
4.6795612009237981
  0
LINE
  8
0
 62
50
  6
CONTINUOUS
 10
4.6716869747430261
 20
5.5739537233891259
 11
5.0230946882216827
 21
5.5739537233867109
  0
LINE
  8
0
 62
50
  6
CONTINUOUS
 10
4.6716869747430261
 20
5.0496028585969901
 11
5.0230946882216827
 21
5.0496028585994326
  0
LINE
  8
0
 62
50
  6
CONTINUOUS
 10
4.5900692840646391
 20
5.7859411085450398
 11
4.5900692840646391
 21
4.8376154734411028
  0
LINE
  8
0
 62
5
  6
CONTINUOUS
 10
5.0519630484988189
 20
5.6581986143187066
 11
7.2979214780599966
 21
5.6581986143187111
  0
LINE
  8
0
 62
5
  6
CONTINUOUS
 10
7.2979214780599966
 20
5.6581986143187111
 11
7.3614318706697182
 21
5.594688221709017
  0
LINE
  8
0
 62
5
  6
CONTINUOUS
 10
7.3614318706697182
 20
5.594688221709017
 11
7.3614318706697182
 21
5.0288683602771354
  0
LINE
  8
0
 62
5
  6
CONTINUOUS
 10
7.3614318706697182
 20
5.0288683602771354
 11
7.2979214780599984
 21
4.9653579676674413
  0
LINE
  8
0
 62
5
  6
CONTINUOUS
 10
7.2979214780599984
 20
4.9653579676674413
 11
5.0519630484988189
 21
4.965357967667436
  0
LINE
  8
0
 62
5
  6
CONTINUOUS
 10
7.2979214780599966
 20
5.6581986143187111
 11
7.2979214780599984
 21
4.9653579676674413
  0
LINE
  8
0
 62
50
  6
CONTINUOUS
 10
5.0230946882216845
 20
4.6795612009237981
 11
5.0230946882216809
 21
5.9439953810623445
  0
LINE
  8
0
 62
50
  6
CONTINUOUS
 10
5.0230946882216827
 20
5.8602771362586603
 11
5.0519630484988189
 21
5.8602771362586603
  0
LINE
  8
0
 62
50
  6
CONTINUOUS
 10
5.0519630484988189
 20
4.7632794457274823
 11
5.0230946882216827
 21
4.7632794457274823
  0
LINE
  8
0
 62
5
  6
CONTINUOUS
 10
7.3614318706697182
 20
5.594688221709017
 11
5.0519630484988189
 21
5.5946882217090117
  0
LINE
  8
0
 62
5
  6
CONTINUOUS
 10
7.3614318706697182
 20
5.0288683602771354
 11
5.0519630484988189
 21
5.0288683602771309
  0
LINE
  8
0
 62
5
  6
DASHDOT
 10
7.476905311778264
 20
5.3117782909930762
 11
4.4745958429560933
 21
5.3117782909930717
  0
ENDBLK
  0
BLOCK
  8
249
 62
5
  6
DASHDOT
  2
TELL_12
 70
0
 10
7.9387990762124181
 20
2.1362586605081093
  0
CIRCLE
  8
249
 62
50
  6
CONTINUOUS
 10
7.9387990762124181
 20
2.1362586605081093
 40
0.28443995381062354
  0
ARC
  8
249
 62
5
  6
CONTINUOUS
 10
7.9387990762124181
 20
2.1362586605081093
 40
0.3464203233256351
 50
175.00000000000003
 51
90
  0
LINE
  8
249
 62
5
  6
DASHDOT
 10
7.9387990762124181
 20
2.5981524249422896
 11
7.9387990762124181
 21
1.6743648960739292
  0
LINE
  8
249
 62
5
  6
DASHDOT
 10
7.4769053117782383
 20
2.1362586605081093
 11
8.4006928406465988
 21
2.1362586605081093
  0
ENDBLK
  0
BLOCK
  8
0
 62
5
  6
DASHDOT
  2
TELL_13
 70
0
 10
7.9387990762124181
 20
5.3117782909930451
  0
CIRCLE
  8
0
 62
50
  6
CONTINUOUS
 10
7.9387990762124181
 20
5.3117782909930451
 40
0.28443995381062354
  0
ARC
  8
0
 62
5
  6
CONTINUOUS
 10
7.9387990762124181
 20
5.3117782909930451
 40
0.3464203233256351
 50
175.00000000000003
 51
90
  0
LINE
  8
0
 62
5
  6
DASHDOT
 10
7.9387990762124181
 20
5.7736720554272249
 11
7.9387990762124181
 21
4.8498845265588653
  0
LINE
  8
0
 62
5
  6
DASHDOT
 10
7.4769053117782383
 20
5.3117782909930451
 11
8.4006928406465988
 21
5.3117782909930451
  0
ENDBLK
  0
BLOCK
  8
0
 62
5
  6
DASHDOT
  2
TELL_14
 70
0
 10
12.26905311778291
 20
2.1362586605081093
  0
CIRCLE
  8
0
 62
50
  6
CONTINUOUS
 10
12.26905311778291
 20
2.1362586605081093
 40
0.28443995381062354
  0
ARC
  8
0
 62
5
  6
CONTINUOUS
 10
12.26905311778291
 20
2.1362586605081093
 40
0.3464203233256351
 50
175.00000000000003
 51
90
  0
LINE
  8
0
 62
5
  6
DASHDOT
 10
12.26905311778291
 20
2.5981524249422896
 11
12.26905311778291
 21
1.6743648960739292
  0
LINE
  8
0
 62
5
  6
DASHDOT
 10
11.807159353348728
 20
2.1362586605081093
 11
12.73094688221709
 21
2.1362586605081093
  0
ENDBLK
  0
BLOCK
  8
0
 62
5
  6
DASHDOT
  2
TELL_15
 70
0
 10
12.26905311778291
 20
5.3117782909930451
  0
CIRCLE
  8
0
 62
50
  6
CONTINUOUS
 10
12.26905311778291
 20
5.3117782909930451
 40
0.28443995381062354
  0
ARC
  8
0
 62
5
  6
CONTINUOUS
 10
12.26905311778291
 20
5.3117782909930451
 40
0.3464203233256351
 50
175.00000000000003
 51
90
  0
LINE
  8
0
 62
5
  6
DASHDOT
 10
12.26905311778291
 20
5.7736720554272249
 11
12.26905311778291
 21
4.8498845265588653
  0
LINE
  8
0
 62
5
  6
DASHDOT
 10
11.807159353348728
 20
5.3117782909930451
 11
12.73094688221709
 21
5.3117782909930451
  0
ENDBLK
  0
BLOCK
  8
0
 62
50
  6
CONTINUOUS
  2
3_50_CSD
 70
0
 10
10.103926097286374
 20
0
  0
INSERT
  8
0
 62
140
  6
CONTINUOUS
  2
TELL_8
 10
12.413394919168564
 20
0.72170900692840645
 41
1.0
 42
1.0
 50
0.0
  0
LINE
  8
0
 62
50
  6
CONTINUOUS
 10
14.001154734411058
 20
0.86605080831408776
 11
14.289838337182422
 21
0.57736720554272514
  0
LINE
  8
0
 62
50
  6
CONTINUOUS
 10
10.536951501154707
 20
6.9284064665127021
 11
14.001154734411058
 21
6.9284064665127021
  0
LINE
  8
0
 62
50
  6
CONTINUOUS
 10
14.001154734411058
 20
6.9284064665127021
 11
14.001154734411058
 21
6.4665127020785214
  0
LINE
  8
0
 62
50
  6
CONTINUOUS
 10
14.001154734411058
 20
4.1570438799076213
 11
14.001154734411058
 21
0.86605080831408776
  0
LINE
  8
0
 62
5
  6
CONTINUOUS
 10
13.596997690353637
 20
6.9284064665127021
 11
13.596997690353637
 21
0.86605080831408776
  0
LINE
  8
0
 62
5
  6
CONTINUOUS
 10
10.941108544857101
 20
0.86605080831408776
 11
10.941108544857101
 21
6.9284064665127021
  0
LINE
  8
0
 62
50
  6
CONTINUOUS
 10
15.155889145496509
 20
6.4665127020785214
 11
15.155889145496509
 21
4.1570438799076213
  0
LINE
  8
0
 62
50
  6
CONTINUOUS
 10
13.82794457274824
 20
4.1570438799076213
 11
15.155889145496509
 21
4.1570438799076213
  0
LINE
  8
0
 62
50
  6
CONTINUOUS
 10
13.82794457274824
 20
6.4665127020785214
 11
15.155889145496509
 21
6.4665127020785214
  0
LINE
  8
0
 62
5
  6
CONTINUOUS
 10
14.57852193977627
 20
6.3510392609699764
 11
14.57852193977627
 21
4.2725173210161662
  0
LINE
  8
0
 62
50
  6
CONTINUOUS
 10
13.82794457274824
 20
4.1570438799076213
 11
13.82794457274824
 21
6.4665127020785214
  0
LINE
  8
0
 62
50
  6
CONTINUOUS
 10
2.3094688221708743
 20
0
 11
2.3094688221708743
 21
0.57736720554272514
  0
LINE
  8
0
 62
50
  6
CONTINUOUS
 10
2.3094688221708743
 20
0.57736720554272514
 11
17.898383371824455
 21
0.57736720554272514
  0
LINE
  8
0
 62
50
  6
CONTINUOUS
 10
17.898383371824455
 20
0.57736720554272514
 11
17.898383371824455
 21
0
  0
LINE
  8
0
 62
50
  6
CONTINUOUS
 10
17.898383371824455
 20
0
 11
2.3094688221708743
 21
0
  0
INSERT
  8
0
 62
5
  6
DASHDOT
  2
TELL_9
 10
15.155889145323323
 20
5.3117782909930717
 41
1.0
 42
1.0
 50
0.0
  0
LINE
  8
0
 62
5
  6
DASHDOT
 10
3.608545034642006
 20
-0.17321016166281755
 11
3.608545034642006
 21
0.75057736720554269
  0
LINE
  8
0
 62
5
  6
DASHDOT
 10
16.599307159353323
 20
-0.17321016166281755
 11
16.599307159353323
 21
0.75057736720554269
  0
LINE
  8
0
 62
50
  6
CONTINUOUS
 10
10.536951501154707
 20
0.57736720554272514
 11
10.536951501154707
 21
6.9284064665127021
  0
LINE
  8
0
 62
50
  6
CONTINUOUS
 10
14.001154734411058
 20
0.86605080831408776
 11
10.536951501154707
 21
0.86605080831408776
  0
INSERT
  8
0
 62
140
  6
CONTINUOUS
  2
TELL_10
 10
7.7944572748267635
 20
0.72170900692840645
 41
1.0
 42
1.0
 50
0.0
  0
LINE
  8
0
 62
50
  6
CONTINUOUS
 10
6.2066974595842694
 20
0.86605080831408776
 11
5.9180138568129061
 21
0.57736720554272514
  0
LINE
  8
0
 62
50
  6
CONTINUOUS
 10
9.67090069284062
 20
6.9284064665127021
 11
6.2066974595842694
 21
6.9284064665127021
  0
LINE
  8
0
 62
50
  6
CONTINUOUS
 10
6.2066974595842694
 20
6.9284064665127021
 11
6.2066974595842694
 21
6.4665127020785214
  0
LINE
  8
0
 62
50
  6
CONTINUOUS
 10
6.2066974595842694
 20
4.1570438799076213
 11
6.2066974595842694
 21
0.86605080831408776
  0
LINE
  8
0
 62
5
  6
CONTINUOUS
 10
6.6108545036416908
 20
6.9284064665127021
 11
6.6108545036416908
 21
0.86605080831408776
  0
LINE
  8
0
 62
5
  6
CONTINUOUS
 10
9.2667436491382258
 20
0.86605080831408776
 11
9.2667436491382258
 21
6.9284064665127021
  0
LINE
  8
0
 62
50
  6
CONTINUOUS
 10
5.0519630484988189
 20
6.4665127020785214
 11
5.0519630484988189
 21
4.1570438799076213
  0
LINE
  8
0
 62
50
  6
CONTINUOUS
 10
6.3799076212470869
 20
4.1570438799076213
 11
5.0519630484988189
 21
4.1570438799076213
  0
LINE
  8
0
 62
50
  6
CONTINUOUS
 10
6.3799076212470869
 20
6.4665127020785214
 11
5.0519630484988189
 21
6.4665127020785214
  0
LINE
  8
0
 62
5
  6
CONTINUOUS
 10
5.6293302542190586
 20
6.3510392609699764
 11
5.6293302542190586
 21
4.2725173210161662
  0
LINE
  8
0
 62
50
  6
CONTINUOUS
 10
6.3799076212470869
 20
4.1570438799076213
 11
6.3799076212470869
 21
6.4665127020785214
  0
INSERT
  8
0
 62
5
  6
DASHDOT
  2
TELL_11
 10
5.0519630486778286
 20
5.3117782909930717
 41
1.0
 42
1.0
 50
0.0
  0
LINE
  8
0
 62
50
  6
CONTINUOUS
 10
9.67090069284062
 20
0.57736720554272514
 11
9.67090069284062
 21
6.9284064665127021
  0
LINE
  8
0
 62
50
  6
CONTINUOUS
 10
6.2066974595842694
 20
0.86605080831408776
 11
9.67090069284062
 21
0.86605080831408776
  0
INSERT
  8
249
 62
5
  6
DASHDOT
  2
TELL_12
 10
7.9387990762124181
 20
2.1362586605081093
 41
1.0
 42
1.0
 50
0.0
  0
INSERT
  8
0
 62
5
  6
DASHDOT
  2
TELL_13
 10
7.9387990762124181
 20
5.3117782909930451
 41
1.0
 42
1.0
 50
0.0
  0
INSERT
  8
0
 62
5
  6
DASHDOT
  2
TELL_14
 10
12.26905311778291
 20
2.1362586605081093
 41
1.0
 42
1.0
 50
0.0
  0
INSERT
  8
0
 62
5
  6
DASHDOT
  2
TELL_15
 10
12.26905311778291
 20
5.3117782909930451
 41
1.0
 42
1.0
 50
0.0
  0
ENDBLK
  0
ENDSEC
  0
SECTION
  2
ENTITIES
  0
INSERT
  8
0
 62
50
  6
CONTINUOUS
  2
TELL_1
 10
-2.8868360277193994
 20
0
 41
1.0
 42
1.0
 50
0.0
  0
INSERT
  8
0
 62
5
  6
DASHDOT
  2
TELL_5
 10
-2.8868360274307157
 20
-10.103926096997689
 41
1.0
 42
1.0
 50
0.0
  0
INSERT
  8
0
 62
50
  6
CONTINUOUS
  2
3_50_CSD
 10
10.103926097286374
 20
0
 41
1.0
 42
1.0
 50
0.0
  0
ENDSEC
  0
EOF
